La Oveja Perdida, Los Voceros De Cristo (tablatura)

Autor: Anónimo | 45636 visualizaciones



AqUI lEs deJo eL rEqqUinteo De la PerDiDa oVeJa

Yo siempre buscaba estos cantos aqui en la cuerda pero nunca estaban
las intros yo se q hay muchos asi, asi q Dios les Bendiga,

Ahi ustedes saben en que nota la van a tocar aunque la original
esta en "B" mayor.

A se me olvidaba es solo la intro ok.
Las cuerdas estan con numeros ok.
6= cUerda mas grande
1= cuerda mas pequeña
es para q no hayan confusiones ok.
por si ustedes van a usar requinto o guitarra

6- ---------------------------------------------------------------------|
5- ---------------------------------------------------------------------|
4- --------------------7------------------------------------------9-----|
3- --4--5--6-----6-------6----------------------------8------8------8---|
2- --------7--7--7---7----7-----10--10--9-9--7---7-5--9---9--9--9----9--|
1- --------5-----5---------5----9---9---7-7--5---5-4--7------7--------7-|


6- -------------------------------------------------------------4--|
5- -----------------------------------------------------2---0------|
4- -------------------------4-----4-----4------7--5--4-------------|
3- --8--8---6--6------------4-----4-------4------------------------|
2- --9--9---7--7---5--5-3---4--4--4--4-----4------------4----------|
1- --7--7---5--5---4--4-2---7-----7---------7--9--7--5------2---0--|


6- ---------------------||
5- ---------------------||
4- ---------4--2--------||
3- ---1-----2--1--------||
2- -0--0--0--0--0--0----||
1- -----0--------0---4--||


bUeNo eSa eS ToDa La iNTRo.
oJaLa LeS SirVa

CuaLQuiER CoSa: marvillagran@hotmail.es
Saludos a Iglesia Embajadores de Cristo QS
En Puerto Barrios aqui en Guatemala.

si kieren comentar busquenme en el hi5 y comenten en mi perfil ok.
ahi esta mi correo para q me busquen.





Calificar esta versión:
Aviso: Este fichero es trabajo propio de su transcriptor y representa su interpretación personal de la canción. El material contenido en esta página es para exclusivo uso privado, por lo que se prohibe su reproducción o retransmisión, así como su uso para fines comerciales.
Más versiones de La Oveja Perdida, Los Voceros De Cristo
La Oveja Perdida
acordes
La Oveja Perdida (ver 2)
acordes
La Oveja Perdida
tablatura
Descubre más canciones de Los Voceros De Cristo