La Biblia Dice Que El Hombre, Los Voceros De Cristo (tablatura)

Autor: Anónimo | 44988 visualizaciones



      ADORNO(N°1)
         ↓              F                                 C
6-|----------------------------------------------------------|
5-|----------------------------------------------------------|
4-|----------------------------------------------------------|
3-|-5-7-9-5-5-7-9-5-7-9-5-5-10----10----------------------12-|
2-|-5-6-8-5-5-6-8-5-6-8-6-----10--10----------13----12-13----|
1-|---------------------5-8-----8-13-13-10-12----10----------|

                                       G7
6-|----------------------------------------------------------|
5-|-10---------------------------------10--10-10-10-------10-|
4-|---10--10---------------------------9---9--9----9---------|
3-|-----9---9--------------------------10--10-10----10--10---|
2-|-----8----8-------------12---10-12--8---8--8--------8---8-|
1-|-----------8-12-12-8-10----8------------------------------|

                                       ADORNO(N°2)
                      C      G7      C    ↓
6-|--------------------------------------------|
5-|-10----------------10-------------10--------|
4-|-------------------10-10----9-----10--------|
3-|-------------------9----9----10---9---------|
2-|-8-------------12--8-----8-----8--8-----8---|
1-|---10-10-10-10------------8-----------8-----|

           F                                 C
6-|---------------------------------------------|
5-|---------------------------------------------|
4-|---------------------------------------------|
3-|--5-7-9-5-5-10----10----------------------12-|
2-|--5-6-8-6-----10--10----------13----12-13----|
1-|--------5-8-----8-13-13-10-12----10----------|

                                       G7
6-|----------------------------------------------------------|
5-|-10---------------------------------10--10-10-10-------10-|
4-|---10--10---------------------------9---9--9----9---------|
3-|-----9---9--------------------------10--10-10----10--10---|
2-|-----8----8-------------12---10-12--8---8--8--------8---8-|
1-|-----------8-12-12-8-10----8------------------------------|

                      C     G7       C     G7      C
6-|---------------------------------------------------|
5-|-10----------------10-------------10------------10-|
4-|-------------------10-10----9-----10-10----9----10-|
3-|-------------------9----9----10---9----9----10--9--|
2-|-8-------------12--8-----8-----8--8-----8-----8-8--|
1-|---10-10-10-10------------8--------------8---------|


C
//La Biblia dice que el hombre
                                       G7
Dice que el hombre es como la flor del campo

Que nace por la mañana pero cuando sale el sol
                   C
Pierde todos sus encantos //

F                                             C
//Si no le aceptas ahora tendrás que tener cuidado
                                                G7
Porque la puerta se cierra y triste quedaras llorando
                    C          G7                C
Porque no quisiste oírle cuando El te estaba llamando//


C
//La Biblia dice que el hombre
                                       G7
Dice que el hombre es como la flor del campo

Que nace por la mañana pero cuando sale el sol
                   C
Pierde todos sus encantos //

F                                            C
//Si no le aceptas ahora tendrás que tener cuidado
                                                G7
Porque la puerta se cierra y triste quedaras llorando
                    C          G7                C
Porque no quisiste oírle cuando El te estaba llamando//


ADORNOS PARA EL ACOMPAÑAMIENTO

     ADORNO(N°1)
6-|-------------3-1-|
5-|-3-3-3-3-2-0-----| Esto solo se hace al inicio
4-|-----------------| de la introducción solo en el
3-|-----------------| comienzo de la canción
2-|-----------------| luego pasa a “F”
1-|-----------------|

      ADORNO(N°2)
6-|-3-------3-1-----|
5-|---3-2-0---------| Este se hace luego siempre
4-|-----------------| en la introducción y siempre
3-|-----------------| para pasar a “F”
2-|-----------------|
1-|-----------------|

LA INTRODUCCIÓN Y LOS ADORNOS ESTÁN MUY BUENOS

NOTA:
Los acordes usados para tocar este hermoso cántico
En el concierto 30 años son (Naturales(F,C,G7)
Pero la original esta en (sostenido(F#,C#,G#7)

QUE DIOS LES BENDIGA

pueden pedirme cánticos en la siguiente dirección:

Facebook: wilber12091992@hotmail.es
  E-mail: wilber12091992@hotmail.es





Calificar esta versión:
Aviso: Este fichero es trabajo propio de su transcriptor y representa su interpretación personal de la canción. El material contenido en esta página es para exclusivo uso privado, por lo que se prohibe su reproducción o retransmisión, así como su uso para fines comerciales.
Más versiones de La Biblia Dice Que El Hombre, Los Voceros De Cristo
La Biblia Dice Que El Hombre
acordes
La Biblia Dice Que El Hombre
tablatura
Descubre más canciones de Los Voceros De Cristo