Quien Es La Que Viene Ahí, Los Tres (tablatura)

Autor: Anónimo | 24521 visualizaciones

Quién es la que viene allí

Intro:
E----------11----------------|
B--------12—-12-----12-12-12-|
G---11-13------13-11---------|


E--------11----------------|-------11----------------
B------12—12------12-12_14-|-----12—-12-----12-12-12-
G-11-13------13-11---------|11-13------13-11---------


E-14-12----------------
B------14-12-11-14-12--
G----------------------


E—-7-7-----------------------------------------
B-7---9-9-7-7—7-7-5-5-------7-7-5-5------------
G------------8--------8-8-6---------8-8-6-8-6-4

E---7-7----------------------------------------
B-7----9-7-7-7-7-5-5-------6h7-7-6-7-9-7-9h11-7
G-----------8--------8-8-6---------------------

E-------------------------------------------
B-7-9-7-9-9-7_8-7-9-7-9-9-7_8-7-9-7-9-------
G-8---8-------------------------------8-6-4-

E------------------------------------------
B-7-9-7-9-9-7_8-7-9-7-9-9-7_8-7-9-7-9------
G-8---8------------------------------8-6-4-


Solo:
E---------------------|-----------------------|----------------------
B-7-9-9-9-7-9-9-9-7---|---7-9-9-9-7-9-9-9-7---|--7-9-9-9-7-9-9-9-7---
G-8----------------8--|---8----------------8--|--8----------------8--
D-------------------9-|---------------------8-|--------------------9-

E-----------------------7-|
B-9-8-7h9-7----------5h6--|
G----------8-6-4---4------|

E-11-----------------------------------------------------------
B----9-14-14-9-12-12-9—11-9-11—11-11-10-9—9-10-11—11-11-10-9-9-


E---7—7---7-|
B—-7--------|
G-8---8—-8--|


E----7-11-7-------------|----7-11-7-------------|----7-11-7-------------|
B-7-9------9-7-12-12-12-|-7-9------9-7-12-12_14-|-7-9------9-7-12-12-12-|

E-14-12----------------
B------14-12-11-14-12--
G----------------------

Final
E----------------------------
B-----------------10-11-12---
G--11-10-11-12-13------------
Calificar esta versión:
Aviso: Este fichero es trabajo propio de su transcriptor y representa su interpretación personal de la canción. El material contenido en esta página es para exclusivo uso privado, por lo que se prohibe su reproducción o retransmisión, así como su uso para fines comerciales.
Más versiones de Quien Es La Que Viene Ahí, Los Tres
Quien Es La Que Viene Ahí
acordes
Quien Es La Que Viene Ahí
tablatura
Descubre más canciones de Los Tres