Pancho, Los Tres (tablatura)

Autor: Anónimo | 45487 visualizaciones

Parte A)

e|---0-2/3-3-3/5-----5---5-----5---5-----5---5-7-0-2---------------------
b|-3---------------0---0-----0---0-----0---0---------3-----3---3-----3---
g|---2-----------6---------6---------6-------------------2---2-----2---2-
d|-0---4/5-5-5/7---------7---------7---------7-7-2-4-0---------0---------
a|-----------------------------------------------------0---------0-------
e|-----------------------------------------------------------------------
   Pancho se quedó...                        entre latas suuucias

e|---0-2/3-3-3/5-----5---5-----5---5-----5---5-7-0-2---------------------
b|-3---------------0---0-----0---0-----0---0---------3-----3---3-----3---
g|---2-----------6---------6---------6-------------------2---2-----2---2-
d|-0---4/5-5-5/7---------7---------7---------7-7-2-4-0---------0---------
a|-----------------------------------------------------0---------0-------
e|-----------------------------------------------------------------------
   nunca revivió...                          la venganza es duuura


e|---0-2/3-3-3/5-----5---5-----5---5-----5---5-7-0-2---------------------
b|-3---------------0---0-----0---0-----0---0---------3-----3---3-----3---
g|---2-----------6---------6---------6-------------------2---2-----2---2-
d|-0---4/5-5-5/7---------7---------7---------7-7-2-4-0---------0---------
a|-----------------------------------------------------0---------0-------
e|-----------------------------------------------------------------------
   en Hualqui nació...                       un día nublaaado


e|---0-2/3-3-3/5-----5---5-----5---5-----5---5-7-0-2---------------------
b|-3---------------0---0-----0---0-----0---0---------3-----3---3-----3---
g|---2-----------6---------6---------6-------------------2---2-----2---2-
d|-0---4/5-5-5/7---------7---------7---------7-7-2-4-0---------0---------
a|-----------------------------------------------------0---------0-------
e|-----------------------------------------------------------------------
   nada raro en él...                        era domingo feriaaado

Parte B)
   SIm       FA#m      SOL       LA         SIm       FA#m      SOL       LA
e|-2---------2---------3---------5----------2---------2---------3---------5---------
b|-------3---------2---------3---------5----------3---------2---------3---------5---
g|-----4---4-----2---2-----4---4-----6---6------4---4-----2---2-----4---4-----6---6-
d|---4---------4---------5---------7----------4---------4---------5---------7-------
a|-2----------------------------------------2---------------------------------------
e|-----------2---------3---------5--------------------2---------3---------5---------

A)
Grande fue su amor
Mina se llamaba
Sin repercusión
partieron al alba
Pancho la miró
al anca del caballo
Fue pasión de a dos
casi sin palabras

B)
Su hermano amante juró encontrarla
transar o seguir la causa
Su padre encomendó encarcerlarla

A)
Pancho se llevó
a la princesa incauta.
Nueve meses van
y la reina ya no es santa

B)
Herraduras y huellas, estacas viejas encontró
El hermano celoso en la noche a tientas se desveló
Tiende a compartir las cosas más caras
Viaja y busca en vano el camino del sol

A)
Pancho se durmió
con la bruja a cuestas
Cuando despertó
vió unas planchas viejas
Su cuñado puso fin
a esta historia eterna
Con un fierro atravezó
a Pancho que hizo una mueca
la mueca de terror
cuando la vida se aleja

B)
En un gallinero Mina se fundió
Su hermano amante nunca le entendió
Con un fierro ardiente enseguida la cegó
No sabe si fue su hermano o su padre quien la amó
No sabe si fue su hermano o su padre quien la amó

A)
Pancho se quedó
entre latas sucias
Siempre se quejó
La vida es tan dura

nota:aca está el tema como debe ser saludos a mi banda'THE CLINIC'.
Calificar esta versión:
Aviso: Este fichero es trabajo propio de su transcriptor y representa su interpretación personal de la canción. El material contenido en esta página es para exclusivo uso privado, por lo que se prohibe su reproducción o retransmisión, así como su uso para fines comerciales.
Más versiones de Pancho, Los Tres
Pancho
acordes
Pancho
tablatura
Descubre más canciones de Los Tres