Pajaros De Fuego, Los Tres (bajo)

Autor: Anónimo | 27092 visualizaciones

sta cancion  s la version unplugged, muy wena,
 y la transcripcion sta muy wena,
quiza tenga x ahí unos detalles, pero son pocos

A)
G.----------------------
D.----------------------
A.----------------------   x 4
E.-5---5---5--5-5-------

B)
G.-2-0------------------------------
D.-----3-2---0-2-----0-3-0-2-0------
A.---------3-----3-2-----------3-2--  x1
E.----------------------------------

C)
G.---------------------------------
D.-----0-2---2-0-----0-3-0-2-0-----
A.-0-3-----3-----3-2-----------3-2-  x7
E.---------------------------------

D)
G.-----------------------------------
D.-----------------0-0-0-0-----------
A.-0-0-0-0---------------------------   x2
E.---------3-3-3-3---------1-1-3-3---

A) x4
B) x1
C) x7
D) x4

E)
G.----------------------------
D.--7-7-5-5-6-7-7-  x N veces-
A.----------------------------
E.----------------------------

Despues cuando baja comienza en esta nota,
luego vienen los sgtes. riff(cada uno c repite como 4 veces)
G.------------------ -----------------
D.-6-6-4-4-5-6-6  x2 -6-6----5-6-6-  x2
A.------------------ -----------------
E.------------------ -----4------------

G.--------------     |--------------
D.-5-5----4-5-5-     |-4-4----3-4-4-
A.-------------- x 4 |--------------   x4
E.-----3--------     |-----2--------


G.--------------     |--------------
D.-3-3----2-3-3-     |--7-7-5-6-7-7-
A.-------------- x 4 |-------------- x2
E.-----1--------     |--------------



G.-------------------    |----------------
D.-------------------    |----------------
A.----7--6-6-4-5-6-6- x2 |--5-5-3-4-5-5--- x2
E.-5-----------------    |----------------

G.----------------
D.--7-7-5-5-6-7-7-
A.---------------- esto se toca hasta esta parte
E.---------------- y luego va entremedio x 2.

G.--------5---                   |
D.--5-5-7---7-   + intermedios   |x2
A.------------                   |
E.------------                   |

y lo ultimo es

G.------------
D.------------
A.-------3----
E.-3-3-5---5--

Salu2 pal 8 ºB dl Salesiano
cualkier duda a mi correo ppipp_x_2007@hotmail.com
Calificar esta versión:
Aviso: Este fichero es trabajo propio de su transcriptor y representa su interpretación personal de la canción. El material contenido en esta página es para exclusivo uso privado, por lo que se prohibe su reproducción o retransmisión, así como su uso para fines comerciales.
Más versiones de Pajaros De Fuego, Los Tres
Pajaros De Fuego
acordes
Pajaros De Fuego
bajo
Descubre más canciones de Los Tres