Olor A Gas, Los Tres (tablatura) (ver 2)

Autor: Anónimo | 30801 visualizaciones

E   A
E    Am

 Intro
   E                  A              Am
e -------3/4------7-----4/2---0---------------
B --------------------------------2---4/5-----
G --------------------------------------------
D --------------------------------------------X2
A --------------------------------------------
E --------------------------------------------

E        A
En la cocina hay
E          Am
olor a gas
E         A
Esta todo apagado
E            Am
hay luna en paz

   E                  A              Am
e -------3/4------7-----4/2---0---------------
B --------------------------------2---4/5-----
G --------------------------------------------
D --------------------------------------------
A --------------------------------------------
E --------------------------------------------

E         A
No tengo hambre
E             Am
voy a revisar
E              A
hay masa en el horno
E           E7
y no hice pan

Puente
(Esta parte la hace la segunda guitarra, se escuhca en el fondo)
  Olor              a una carne         mantel y sal
      A                    C#m                     F#
e ----9---------------------16---------------------2---
B ----7---------------------14---------------------2----
G ------------------------------------------------------
D ------------------------------------------------------
A ------------------------------------------------------
E ------------------------------------------------------


   en semana             santa               sol celestial
      A                    C#m                     F#
e ----9---------------------16---------------------2----
B ----7---------------------14---------------------2----
G ------------------------------------------------------
D ------------------------------------------------------
A ------------------------------------------------------
E ------------------------------------------------------

A         C#m
Olor a una carne
F#
mantel y sal
A     C#m
en semana santa
F#
sol celestial

C#m
sin sábanas
                F#
sin un colchon
C#m
duerme tranquilo
                F#
como un liron

  A       Am        E
Seco el corazon ooooon


   A                  F#                  A
e --17/16--------------14/12---------------8-------
B -------------------------------------------------
G -------------------------------------------------
D -------------------------------------------------
A -------------------------------------------------
E -------------------------------------------------

solo
                E            A          E            A        Am
e -----3/4------7----------9/11---12---9----------------------------------
B -------------------------------------------7h9----7----7/9--------------
G ------------------------------------------------------------------------
D ------------------------------------------------------------------------
A ------------------------------------------------------------------------
E ------------------------------------------------------------------------

                E            A          E            A        Am
e -----3/4------7----------9/11---12---9----------------------------------
B -------------------------------------------7h9-----7-----5--5-----------
G ------------------------------------------------------------------------
D ------------------------------------------------------------------------
A ------------------------------------------------------------------------
E ------------------------------------------------------------------------


               A            C#m                 F#
e ------------------9---11h12-----9-------------------------------------
B -----9/7------5------------------------------7h9----7--7h9------------
G ----------------------------------------------------------------------
D ----------------------------------------------------------------------
A ----------------------------------------------------------------------
E ----------------------------------------------------------------------

                A            C#m                 F#
e -------------------------9---11h12-----9------------------------------
B ------9/7-----5--------------------------------7h9----7-----5--5------
G ----------------------------------------------------------------------
D ----------------------------------------------------------------------
A ----------------------------------------------------------------------
E ----------------------------------------------------------------------


       A             F#         A          A           F#          A
e ----17/16---------14/12--------8------17/16--------13/11--------7-----
B ----------------------------------------------------------------------
G ----------------------------------------------------------------------
D ----------------------------------------------------------------------
A ----------------------------------------------------------------------
E ----------------------------------------------------------------------

E         A
En la cocina habia
E            Am
olor a gas
   E          A
ya no cuento ovejas
E                Am
hoy duermo en paz
 E           A
busco mi camisa atientas
E              Am
voy a desfilar
     E           A
Planchada y de fiesta
E           E7
y olor a gas

A         C#m
Olor a una carne
F#
mantel y sal
A     C#m
en semana santa
F#
sol celestial

C#m
sin sábanas
                F#
sin un colchon
C#m
duerme tranquilo
                F#
como un liron

  A       Am        E
Seco el corazon ooooon


   A                  F#                  A
e --17/16--------------14/12---------------8-------
B -------------------------------------------------
G -------------------------------------------------
D -------------------------------------------------
A -------------------------------------------------
E -------------------------------------------------

E     A
E          Am
(Se repite el intro varias veces hasta el final,
termina en E)

Olor a gas

Olor a gas

Olor a gas

Olor a gas


el E7 que aparece ahi es:
E: 0
B: 3
G: 1
D: 0
A: 2
E: 0


espero que les guste esta modificacion y que disfruten de esta
buena rola!!!!!

cualquier duda:   josafat_1985@live.com.mx
Calificar esta versión:
Aviso: Este fichero es trabajo propio de su transcriptor y representa su interpretación personal de la canción. El material contenido en esta página es para exclusivo uso privado, por lo que se prohibe su reproducción o retransmisión, así como su uso para fines comerciales.
Más versiones de Olor A Gas, Los Tres
Olor A Gas
acordes
Olor A Gas
tablatura
Olor A Gas (ver 2)
tablatura
Descubre más canciones de Los Tres