No Sabes Que Desperdicio Tengo En El Alma, Los Tres (tablatura) (ver 2)

Autor: Anónimo | 26027 visualizaciones

INTRO:
PARTE JUNTO CON LA GUITARA(1) / DESPUÉS ENTRA EL BAJO(2)
     (1)                          (2)
 E---------I-------------------------------------------------
 B---------I-------------------------------------------------
 G---------I-------------------------------------------------
 D-77--7---I-------------------------------------------------
 A-75--7---I----------------3*---------------5*--------------
 E-55--5---I-55-3-5-3-5-3-5---55-3-5-3-5-3-5-----------------
   XX


 E-----------------------------------------------------------
 B-----------------------------------------------------------
 G-----------------------------------------------------------
 D-----------------------------------------------------------
 A----------------3*----------------5*-----------------------
 E-55-3-5-3-5-3-5----55-3-5-3-5-3-5--------------------------
 
DESPUÉS DE ESTO VIENE UN REDOBLE DE CAJA Y SE REPITE EL INTRO(2)

    DIME QUE LA VIDA ES FACIL, DIME QUE EL AMOR ES ORO(3)
               (3)
 E-X//------------//--------------//--------------------I----------------
 B-X//------------//--------------//--------------------I----------------
 G-2//------------//--------------//--------------------I-2-2-2-2-2-2-2--
 D-2//------------//--------------//--------------------I-2-2-2-2-2-2-2--
 A-0//------------//--------------//--------------------I-0-0-0-0-0-0-0--
 E-X//------------//--------------//--------------------I----------------
                                                              X X   X
ESTA PARTE SE MANTIENE CON HARTA DISTORSION HASTA QUE SE ACOPLE UN POCO(3)

     DIME QUE NO HAY NADA QUE HACER Y LO HARE...
 E---X----//-----------------//------------------------------
 B---X----//-----------------//------------------------------
 G---2----//-----------------//------------------------------
 D---2----//-----------------//------------------------------
 A---0----//-----------------//------------------------------
 E---X----//-----------------//------------------------------
 
     DIME QUE EL TIEMPO BRILLA Y NO DESCANSARE HASTA APAGARLO      
 E---X----//-----------------//---------------I---------------
 B---X----//-----------------//---------------I---------------
 G---2----//-----------------//---------------I---------------
 D---2----//-----------------//---------------I---------------
 A---0----//-----------------//---------------I---------------
 E---X----//-----------------//---------------I---------------

DESPUÉS DE ESTO SE REPITE ESTA PARTE 2 VECES
 E--------------------------------------I---------------------
 B--------------------------------------I-SE-REPITE-2-VECES---
 G--------------------------------------I---------------------
 D--------------------------------------I---------------------
 A----------------3*----------------5*--I-SE-REPITE-2-VECES---
 E-55-3-5-3-5-3-5----55-3-5-3-5-3-5-----I---------------------


   NO SABES QUE DESPERDICIO TENGO EN EL ALMA
 E-----------------------------------------------------------
 B-----------------------------------------------------------
 G-----------------------------------------------------------
 D--7-//---------------------3-//------2-//------------------
 A--7-//---------------------3-//------2-//------------------
 E--5-//---------------------1-//------0-//------------------
     LAm                      FA       MI



 E---------------------------------------I--------------------
 B---------------------------------------I--------------------
 G---------------------------------------I--------------------
 D---------------------------------------I--------------------
 A----------------3*----------------5*---I--------------------
 E-55-3-5-3-5-3-5----55-3-5-3-5-3-5------I--------------------

   NO SABES QUE DESPERDICIO TENGO EN EL ALMA
 E-----------------------------------------------------------
 B-----------------------------------------------------------
 G-----------------------------------------------------------
 D--7-//---------------------3-//------2-//------------------
 A--7-//---------------------3-//------2-//------------------
 E--5-//---------------------1-//------0-//------------------
     LAm                      FA       MI

ESTA PARTE ES EL ”PUENTE” DE LA CANCION 

 E--------------------------------------------------------------
 B--------------------------------------------------------------
 G--55-8-7--55-8-7--55-8-7--55-8-7--55-8-7--55-8-7--------------
 D--XX-X-X--XX-X-X--XX-X-X--XX-X-X--XX-X-X--XX-X-X--7-//--------
 A--33-6-5*-33-6-5*-33-6-5*-33-6-5*-33-6-5*-33-6-5*-7-//--------
 E--------------------------------------------------5-//--------
 

DESPUÉS DE ESTO SE REPITE ESTA PARTE 2 VECES
 E--------------------------------------I---------------------
 B--------------------------------------I-SE-REPITE-2-VECES---
 G--------------------------------------I---------------------
 D--------------------------------------I---------------------
 A----------------3*----------------5*--I-SE-REPITE-2-VECES---
 E-55-3-5-3-5-3-5----55-3-5-3-5-3-5-----I---------------------

DAME LAS MANOS HAGO DINERO PARA DESESPERARME MÁS
 
 E---X----//-----------------//------------------I-------------I--
 B---X----//-----------------//------------------I---X-X-------I--
 G---2----//-----------------//------------------I---2-2--2----I--
 D---2----//-----------------//------------------I---2-2--2----I--
 A---0----//-----------------//------------------I---0-0--0----I--
 E---X----//-----------------//------------------I-------------I--
                                                     X X
  


MATARE Y VIVIRE HASTA DESPUES DE TU MUERTE

 E---X----//-----------------//------------------I------------
 B---X----//-----------------//------------------I------------
 G---2----//-----------------//------------------I------------
 D---2----//-----------------//------------------I------------
 A---0- --//-----------------//------------------I------------
 E---X----//-----------------//------------------I------------
     


DESPUÉS DE ESTO SE REPITE ESTA PARTE 2 VECES
 E--------------------------------------I---------------------
 B--------------------------------------I-SE-REPITE-2-VECES---
 G--------------------------------------I---------------------
 D--------------------------------------I---------------------
 A----------------3*----------------5*--I-SE-REPITE-2-VECES---
 E-55-3-5-3-5-3-5----55-3-5-3-5-3-5-----I---------------------

  
 NO SABES QUE DESPERDICIO TENGO EN EL ALMA
 E-----------------------------------------------------------
 B-----------------------------------------------------------
 G-----------------------------------------------------------
 D--7-//---------------------3-//------2-//------------------
 A--7-//---------------------3-//------2-//------------------
 E--5-//---------------------1-//------0-//------------------
     LAm                      FA       MI

 E---------------------------------------I--------------------
 B---------------------------------------I--------------------
 G---------------------------------------I--------------------
 D---------------------------------------I--------------------
 A----------------3*----------------5*---I--------------------
 E-55-3-5-3-5-3-5----55-3-5-3-5-3-5------I--------------------

NO SABES QUE DESPERDICIO TENGO EN EL ALMA
 E-------------------------------------------------------------------
 B-------------------------------------------------------------------
 G-------------------------------------------------------------------
 D--7-//---------------------3-//------2-//--------------------------
 A--7-//---------------------3-//------2-//--------------------------
 E--5-//---------------------1-//------0-//--------------------------
     LAm                      FA       MI
 








                                                                   LA(4)
 E------------------------------------------------------------------I----
 B------------------------------------------------------------------I-X--
 G--55-8-7--55-8-7--55-8-7--55-8-7--55-8-7--55-8-7---55-8-7--55-8-7-I-2--
 D--XX-X-X--XX-X-X--XX-X-X--XX-X-X--XX-X-X--XX-X-X---XX-X-X--XX-X-X-I-2--
 A--33-6-5*-33-6-5*-33-6-5*-33-6-5*-33-6-5*-33-6-5*--33-6-5*-33-6-5*I-0--
 E------------------------------------------------------------------I----
ESTA PARTE ES LA DEL PUNTEO NO LA HE SACADO PERO LA 2 GUITARA HACE ESTO 
2 VECES. DESPUÉS DE HACER ESTO TERMINA EN LA NOTA LA (4)
 E--------------------------------------I---------------------
 B--------------------------------------I-SE-REPITE-2-VECES---
 G--------------------------------------I---------------------
 D--------------------------------------I---------------------
 A----------------3*----------------5*--I-SE-REPITE-2-VECES---
 E-55-3-5-3-5-3-5----55-3-5-3-5-3-5-----I---------------------


    AHORA VUELVO A MI VIDA COMO QUIEN SE PRESTA A MORIR

 E---X----//-----------------//------------------I------------
 B---X----//-----------------//------------------I------------
 G---2----//-----------------//------------------I------------
 D---2----//-----------------//------------------I------------
 A---0- --//-----------------//------------------I------------
 E---X----//-----------------//------------------I------------
     
    DIME QUE EL TIEMPO BRILLA Y NO DESCANSARE HASTA APAGARLO

 E---X----//-----------------//------------------I------------
 B---X----//-----------------//------------------I------------
 G---2----//-----------------//------------------I------------
 D---2----//-----------------//------------------I------------
 A---0- --//-----------------//------------------I------------
 E---X----//-----------------//------------------I------------

                       HASTA APAGARLOOOOOOOOO

 E-----------------------------------------------
 B-----------------------------------------------                            
 G------------------------------------------------
 D-----------------------------------------------
 A----------------3*----------------5*-----------
 E-55-3-5-3-5-3-5----55-3-5-3-5-3-5--------------

DE AHÍ SE REPITE ESTO TODO EL RATO MIENTRAS EL ALVARO CANTA: HASTA APAGARLOOOOOOO    

DESPUÉS DE QUE TERMINE DE CANTAR: HASTA APAGARLOOOOO. VIENE ESTO:

 E--------------------------------------I---------------------
 B--------------------------------------I-SE-REPITE-2-VECES---
 G--------------------------------------I---------------------
 D--------------------------------------I---------------------
 A----------------3*----------------5*--I-SE-REPITE-2-VECES---
 E-55-3-5-3-5-3-5----55-3-5-3-5-3-5-----I---------------------
   
                   
                              (10)
 E--------------------------------------------------------------
 B--------------------------------------------------------------
 G--55-8-7--55-8-7--55-8-7--55-8-7--55-8-7--55-8-7--------------
 D--XX-X-X--XX-X-X--XX-X-X--XX-X-X--XX-X-X--XX-X-X--7-//--------
 A--33-6-5*-33-6-5*-33-6-5*-33-6-5*-33-6-5*-33-6-5*-7-//--------
 E--------------------------------------------------5-//--------

ESTA PARTE EMPIEZA A AUMENTAR LA VELOCIDAD DE CORCHEAS A SEMICORCHEAS Y CASI FUSAS. 
Y TERMINA ASÍ MIENTRAS LA 1 GUITARA HACE EL PUNTEO FINAL LA 2 GUITARA HACE ESTO MAS O 
MENOS SEMICORCHEAS

 E----------------------------------------5--5---------------------------
 B--------------------------------------5----5---------------------------
 G--555555555555-//------------------6-------6---------------------------
 D--555555555555-//----------------7---------7---------------------------
 A--333333333333-//--------------7-----------7---------------------------
 E-----------------------------5-------------5---------------------------
 


ESPERO QUE LE HAYA GUSTADO LA TABLATURA TIENEN QUE ESCUCHARLA 
PARA QUE LA ENTIENDAN SI ES FACIL EL PUNTEO DESPUÉS LO SACO Y 
SE LOS MANDO.
CHAOOO.
Calificar esta versión:
Aviso: Este fichero es trabajo propio de su transcriptor y representa su interpretación personal de la canción. El material contenido en esta página es para exclusivo uso privado, por lo que se prohibe su reproducción o retransmisión, así como su uso para fines comerciales.
Más versiones de No Sabes Que Desperdicio Tengo En El Alma, Los Tres
No Sabes Que Desperdicio Tengo En El Alma
acordes
No Sabes Que Desperdicio Tengo En El Alma
tablatura
No Sabes Que Desperdicio Tengo En El Alma (ver 2)
tablatura
Descubre más canciones de Los Tres