Me Rompió El Corazón, Los Tres (tablatura)

Autor: Anónimo | 27231 visualizaciones

Intro


e |------------3---5---3---5--|-----------3---5---3---5-----||
B |--3---5--6-----------------|--3---5--6----------------3--||
G |---------------------------|-----------------------------||
D |---------------------------|-----------------------------||
A |---------------------------|-----------------------------||
E |---------------------------|-----------------------------||


REm            MIm7b   LA7
Me rompio el corazon

                  e |--5---5----5----5-------||
                  B |----8----6----5----3----||
                  G |------------------------||
                  D |------------------------||
                  A |------------------------||
                  E |------------------------||


REm            MIm7b   LA7
nunca supe muy bien

                  e |--5---5----5----5-------||
                  B |----8----6----5----3----||
                  G |------------------------||
                  D |------------------------||
                  A |------------------------||
                  E |------------------------||


           SOLm                REm                LA#7  MIm7b  LA7
si las postales que escribio me hundieron muy lento, muy lento

             e |-------------------------------------------||
             B |---3--5--6--5--3--6--5--3--5---------6--5--||
             G |-------------------------------------------||
             D |-------------------------------------------||
             A |-------------------------------------------||
             E |-------------------------------------------||


REm            MIm7b  LA7
no se si tuve razon

                  e |--5---5----5----5-------||
                  B |----8----6----5----3----||
                  G |------------------------||
                  D |------------------------||
                  A |------------------------||
                  E |------------------------||

REm          MIm7b    LA7
en lo que me cego

                  e |--5---5----5----5-------||
                  B |----8----6----5----3----||
                  G |------------------------||
                  D |------------------------||
                  A |------------------------||
                  E |------------------------||


            SOLm      REm               LA#7    min7b  LA7
estamos lejos del final se torna mas lento, mas lento

             e |-------------------------------------------||
             B |---3--5--6--5--3--6--5--3--5---------6--5--||
             G |-------------------------------------------||
             D |-------------------------------------------||
             A |-------------------------------------------||
             E |-------------------------------------------||


Instrumental :La#7 - La7 - Redism - La7


e |-------6--5--6--------5--3--5---7-7-7-7-9--10-9--5-5---||
B |--3/6------------2/5------------9-9-9-9-10-10-10-5-5---||
G |-------------------------------------------------------||
D |-------------------------------------------------------||
A |-------------------------------------------------------||
E |-------------------------------------------------------||


II)
   REm          MIm7b   LA7
El infierno me dio

e |------------3---5---3---5--||
B |--3---5--6-----------------||
G |---------------------------||
D |---------------------------||
A |---------------------------||
E |---------------------------||


REm           MIm7b    LA7
razones que no

e |------------3---5---3---5--||
B |--3---5--6-----------------||
G |---------------------------||
D |---------------------------||
A |---------------------------||
E |---------------------------||


          SOLm         REm                  LA#7  MIm7b     LA7
me sirven para recordar palabras que incendian, que incendian

             e |-------------------------------------------||
             B |---3--5--6--5--3--6--5--3--5---------6--5--||
             G |-------------------------------------------||
             D |-------------------------------------------||
             A |-------------------------------------------||
             E |-------------------------------------------||


REm          MIm7b  LA7
mi ultimo adios

e |------------3---5---3---5--||
B |--3---5--6-----------------||
G |---------------------------||
D |---------------------------||
A |---------------------------||
E |---------------------------||

REm         MIm7b  LA7
no espera perdon

e |------------3---5---3---5--||
B |--3---5--6-----------------||
G |---------------------------||
D |---------------------------||
A |---------------------------||
E |---------------------------||

          SOLm        REm                LA#7      MIm7b   LA7
solo dos lagrimas de amor que veo en tu alma en tu alma

        e |-------------------------------------------||
        B |---3--5--6--5--3--6--5--3--5---------6--5--||
        G |-------------------------------------------||
        D |-------------------------------------------||
        A |-------------------------------------------||
        E |-------------------------------------------||


Instrumental :La#7 - La7 - Redism - La7

     LA#7           LA7            REdimm          LA7

e |-------6--5--6--------5--3--5---7-7-7-7-9--10-9--5-5---||
B |--3/6------------2/5------------9-9-9-9-10-10-10-5-5---||
G |-------------------------------------------------------||
D |-------------------------------------------------------||
A |-------------------------------------------------------||
E |-------------------------------------------------------||

     LA#7               LA7            Redsim          LA7

e |-------6--5--6------------5--3--5---7-7-7-7-9--10-9--5-5---||
B |--3/6----------6-----2/5------------9-9-9-9-10-10-10-5-5---||
G |-----------------7-----------------------------------------||
D |-----------------------------------------------------------||
A |-----------------------------------------------------------||
E |-----------------------------------------------------------||


         REm          MIm7b   LA7
         El infierno me dio

e |--13--12--13--15--17--15--17---||
B |-------------------------------||
G |-------------------------------||
D |-------------------------------||
A |-------------------------------||
E |-------------------------------||

         REm           MIm7b    LA7
         razones que no

e |--13--12--13--15--17--15--17---||
B |-------------------------------||
G |-------------------------------||
D |-------------------------------||
A |-------------------------------||
E |-------------------------------||

          SOLm         REm                  LA#7  MIm7b     LA7
me sirven para recordar palabras que incendian, que incendian

e |------13--12--10------13--12--10------------||
B |--11---------------10-------------10--12----||
G |--------------------------------------------||
D |--------------------------------------------||
A |--------------------------------------------||
E |--------------------------------------------||

REm          MIm7b  LA7
mi ultimo adios

e |--13--12--13--15--17--15--17---||
B |-------------------------------||
G |-------------------------------||
D |-------------------------------||
A |-------------------------------||
E |-------------------------------||

REm         MIm7b  LA7
no espera perdon

e |--13--12--13--15--17--15--17---||
B |-------------------------------||
G |-------------------------------||
D |-------------------------------||
A |-------------------------------||
E |-------------------------------||


          SOLm        REm                LA#7      MIm7b   LA7
solo dos lagrimas de amor que veo en tu alma en tu alma

e |------13--12--10------13--12--10------------||
B |--11---------------10-------------10--12----||
G |--------------------------------------------||
D |--------------------------------------------||
A |--------------------------------------------||
E |--------------------------------------------||


    REm             LA#7 ( 11 veces )

e |--13--12--10--12-------||
B |-----------------11----||
G |-----------------------||
D |-----------------------||
A |-----------------------||
E |-----------------------||



LA7  - SOLm

e |--14--13--13--14--18-----||
B |-------------------------||
G |-------------------------||
D |-------------------------||
A |-------------------------||
E |-------------------------||


------------------------------------------------

notas

     REm                         LA#7

e |-5-----------||         e |-6----------||
B |-5-6---------||         B |-6----------||
G |-5---7-------||         G |-6--7-------||
D |-5---7-------||         D |-6----------||
A |-5-----------||         A |-6--8-------||
E |-5-----------||         E |-6----------||

     MIm7b                       REdimm

e |---3---------||         e |-5---7------||
B |---3---------||         B |-5-6--------||
G |---3---------||         G |-5---7------||
D |-2-----------||         D |-5----------||
A |-------------||         A |-5----------||
E |-------------||         E |-5----------||

     LA7

e |-5-----------||
B |-5-----------||
G |-5--6--------||
D |-5-----------||
A |-5--7--------||
E |-5-----------||

     SOLm

e |-3-----------||
B |-3-----------||
G |-3-----------||
D |-3--5--------||
A |-3--5--------||
E |-3-----------||
Calificar esta versión:
Aviso: Este fichero es trabajo propio de su transcriptor y representa su interpretación personal de la canción. El material contenido en esta página es para exclusivo uso privado, por lo que se prohibe su reproducción o retransmisión, así como su uso para fines comerciales.
Más versiones de Me Rompió El Corazón, Los Tres
Me Rompió El Corazón
acordes
Me Rompió El Corazón
tablatura
Descubre más canciones de Los Tres