Me Arrendé, Los Tres (tablatura)

Autor: Anónimo | 35313 visualizaciones

                                            ¦esta es una versión en vivo de la 
                                          ¦canción donde se le agregan estas 
                                          ¦cuatro notitas. 
----3---5-3-0------3---5-3-0-0---------------------------------------¦
----0---0-0-0---0--0---0-0-0-0-3----3--------3-------3----1-0--------¦
------0-------0------0---------0----0--------0-------0------------0--¦x2
----------------------------------0---0----0---0---0---0--------0----¦
----3-------3------3---------3---------------------------------------¦
--------------------------------3--------3-------3-------------------¦

'Me arrendé una vida para poder matar...'

----3---5-3-0------3---5-3-0-0---------------------------------------¦
----0---0-0-0---0--0---0-0-0-0-3----3--------3-------3----1-0--------¦
------0-------0------0---------0----0--------0-------0------------0--¦x2
----------------------------------0---0----0---0---0---0--------0----¦
----3-------3------3---------3---------------------------------------¦
--------------------------------3--------3-------3-------------------¦





Esta parte es 'sin buscar encontré algo...'. Como la canción se repite dos veces entera,
la primera vez se toca esto 2 veces antes de cantar, y luego se canta dando un total de 5
veces. Pero la 5 repetición se excluye la parte -3^5-3-1-0--
                                    -----------2

La segunda vez que se canta en la canción 'sin buscar encontre algo', se canta inmediatamente.
--------------------------------------------¦
-0---0---0---0----1---1---3^5-3-1-0---------¦
-0---0---0---0----0---0-------------2-------¦
---2---2---0---0----2---2-------------------¦
------------------3-------------------------¦
-0-------3----------------------------------¦






-0---0----2---2----5---3-2-0-----------¦
-0---0--------0----------------0-------¦
---0---0----0---0----0-------0---------¦
-------------------0-------------------¦
----------3--------------3-------------¦
-0-------------------------------------¦



'El sol volvió al corazón...'

LAm  MIm  FA       DO
LAm  MIm  FA       DO
LAm  MIm  FA  FAm  MIm7  SOL5  



----3---5-3-0------3---5-3-0-0---------------------------------------¦
----0---0-0-0---0--0---0-0-0-0-3----3--------3-------3----1-0--------¦
------0-------0------0---------0----0--------0-------0------------0--¦
----------------------------------0---0----0---0---0---0--------0----¦
----3-------3------3---------3---------------------------------------¦
--------------------------------3--------3-------3-------------------¦



----3---5-3-0------3---5-3-0-0-----------------------3-------¦
----0---0-0-0---0--0---0-0-0-0-3----3----1---3-1---3---------¦
------0-------0------0---------0----0----0-------0-----------¦
----------------------------------0---0----2-----------------¦
----3-------3------3---------3-------------------2-----------¦
--------------------------------3--------3-------------------¦


Me arrendé es un tema que llega al alma si son capaces de comprender la letra.
Es por eso que te lo dedico, tú sabrás quien eres... y por eso te lo agradezco... no pienses
que te odio.
Calificar esta versión:
Aviso: Este fichero es trabajo propio de su transcriptor y representa su interpretación personal de la canción. El material contenido en esta página es para exclusivo uso privado, por lo que se prohibe su reproducción o retransmisión, así como su uso para fines comerciales.
Más versiones de Me Arrendé, Los Tres
Me Arrendé
acordes
Me Arrendé (ver 2)
acordes
Me Arrendé
tablatura
Me Arrendé (ver 2)
tablatura
Descubre más canciones de Los Tres