Lágrimas Negras, Los Tres (tablatura)

Autor: Anónimo | 38653 visualizaciones

Intro

                                                                        Am

 e |--------------------------|------------------|---------------------||
 b |-5-6-7-8--5-6------5------|-5-6-5------------|-5-6-5---------------||
 g |---------------7------5-7-|--------7-5-4-5-7-|--------7-5-4--------||
 d |--------------------------|------------------|---------------7-6-7-||
 a |--------------------------|------------------|---------------------||
 E |--------------------------|------------------|---------------------||




    Riff 1



    Am                            Dm              G

 e |---8-7-5--5-7-8--7-5-7------|--5----7-5-----|---7-7-7--5---5-7-5--||
 b |-----------------------8----|-----6---------|-8----------8--------||
 g |----------------------------|---------------|---------------------||
 d |----------------------------|---------------|---------------------||
 a |----------------------------|---------------|---------------------||
 E |----------------------------|---------------|---------------------||


 Am

 e |---------5-5-5--7-8-7--5-7----5--||
 b |--5----5-------------------8-----||
 g |---------------------------------||
 d |---------------------------------||
 a |---------------------------------||
 E |---------------------------------||


    Dm                  Am         B7           E        Am

 e |---7-7-7--5----5---|----5-7---|-8-7-5-8-7--|--------|--7--5--||
 b |-6----------8------|--5-------|------------|--5-5-5-|--------||
 g |-------------------|----------|------------|--------|--------||
 d |-------------------|----------|------------|--------|--------||
 a |-------------------|----------|------------|--------|--------||
 E |-------------------|----------|------------|--------|--------||


LAm
Aunque tú
                      REm
me has echado al abandono
        SOL
aunque tú
                  DO
has muerto mis ilusiones
   LAm                          REm
en vez de maldecirte por tus rencores
                 LAm
en mis sueños te colmo
                 SI7 - MI
en mis sueños te colmo
         LAm
de bendiciones


LAm                              REm
Sufro la inmensa pena de tu extravío
    SOL                         DO
sufro el dolor más grande de tu partida
 SI7                                MI7
Lloro aunque tu no sepas que el llanto es mio
                LAm
son de lágrimas negras
                SI7 - MI
son de lágrimas negras
           LAm
como es mi vida



coro


          LAm
Si tu me quieres dejar
      MI7
yo no puedo vivir
   REm             LAm
contigo me voy, mi negra
          MI      LAm
aunque me cueste morir


          LAm
Si tu me quieres dejar
      MI7
yo no puedo vivir
   REm             LAm
contigo me voy, mi negra
          MI      LAm
aunque me cueste morir



      riff 2


   Am                            Dm      G                C

 e |----------------------------|---------------------|---------||
 b |----------------------------|---------------------|---------||
 g |-5-4-2--2-4-5-4-2-4-1-2-----|---4-2-----2-4-2---2-|---------||
 d |----------------------------|-3-----5-5-------5---|-3-2--2--||
 a |----------------------------|---------------------|---------||
 E |----------------------------|---------------------|---------||

   Am                     Dm

 e |------------------------||
 b |------------------------||
 g |-2-2-2-2--4-5-4-2-4-1-2-||
 d |------------------------||
 a |------------------------||
 E |------------------------||


          Am            B7      E        Am

 e |-------------|-------------|-------|--------||
 b |-------------|-------------|-------|--------||
 g |---2-1-2-4-2-|---2-4-5-4-2-|-5-4-4-|2-1-4-2-||
 d |-3-----------|-2-----------|-------|--------||
 a |-------------|-------------|-------|--------||
 E |-------------|-------------|-------|--------||


     Am                           Dm       G

 e |--8-8-8-8-8-8-8-8-7-7-7-5-5-|--------|---7-7-7-7-7-7-7-7-5-5-5-||
 b |----------------------------|-8-6-6--|-6-----------------------||
 g |----------------------------|--------|-------------------------||
 d |----------------------------|--------|-------------------------||
 a |----------------------------|--------|-------------------------||
 E |----------------------------|--------|-------------------------||

         C       B7               E

 e |-----------|----7--7--7-5-4-|-5-7-5-4-4--||
 b |-8-8-6-5-5-|--5-------------|------------||
 g |-----------|----------------|------------||
 d |-----------|----------------|------------||
 a |-----------|----------------|------------||
 E |-----------|----------------|------------||


                 Am                B7   E         Am

 e |--4-5-7-5-4-7-5-|-----5-7-8-7-5-8-|-7--7-5-4-|-5---||
 b |----------------|-5---------------|----------|-----||
 g |----------------|-----------------|----------|-----||
 d |----------------|-----------------|----------|-----||
 a |----------------|-----------------|----------|-----||
 E |----------------|-----------------|----------|-----||



LAm                              REm
Sufro la inmensa pena de tu extravío
    SOL                         DO
sufro el dolor más grande de tu partida
 SI7                                MI7
Lloro aunque tu no sepas que el llanto es mio
                LAm
son de lágrimas negras
                SI7 - MI
son de lágrimas negras
           LAm
como es mi vida



coro


          LAm
Si tu me quieres dejar
      MI7
yo no puedo vivir
   REm             LAm
contigo me voy, mi negra
          MI      LAm
aunque me cueste morir


          LAm
Si tu me quieres dejar
      MI7
yo no puedo vivir
   REm             LAm
contigo me voy, mi negra
          MI      LAm
aunque me cueste morir

(despues de este ultimo "Lam" de puedes agregar
 una cuerda mas y suena mejor el final entonces
 este "Lam" te quedaria asi :
 e |-----2----|| )
 b |-1--------||
 g |-----2----||
 d |---2------||
 a |----------||
 E |----------||



     Am (LAm)               E (MI)

 E |----------||        E |----------||
 b |-1--------||        b |----------||    notas en clave americana
 G |-----2----||        G |-1--------||
 D |---2------||        D |-----2----||
 A |----------||        A |---2------||   (C -D -E -F -G  -A -B -C )
 E |----------||        E |----------||   (DO-RE-MI-FA-SOL-LA-SI-DO)


    Dm (REm)               C (DO)

 E |-1--------||        E |----------||
 B |------3---||        B |-1--------||
 G |---2------||        G |----------||
 D |----------||        D |---2------||
 A |----------||        A |-----3----||
 E |----------||        E |----------||


   G (SOL)                B7 (SI7)              E7 (MI7)

 E |------1---||        E |---2------||      E |----------||
 B |------1---||        B |----------||      B |-------3--||
 G |----------||        G |---2------||      G |-1--------||
 D |----------||        D |-1--------||      D |-----2----||
 A |-2--------||        A |---2------||      A |---2------||
 E |---3------||        E |----------||      E |----------||


Agradecimiento a Tio lalo parra por ser un exelente cantautor
chileno y la los tres por su excelente adaptación de este tema.
ya que esta es mi primera transcripción para esta web y en realidad
no es muy facil transcribir me parece que no hay errores pero en
caso de cualquier duda, consulta, correción o critica constructiva
escribir a francko81@hotmail.com
Calificar esta versión:
Aviso: Este fichero es trabajo propio de su transcriptor y representa su interpretación personal de la canción. El material contenido en esta página es para exclusivo uso privado, por lo que se prohibe su reproducción o retransmisión, así como su uso para fines comerciales.
Más versiones de Lágrimas Negras, Los Tres
Lágrimas Negras
acordes
Lágrimas Negras
tablatura
Descubre más canciones de Los Tres