Hojas De Thé, Los Tres (bajo)

Autor: Anónimo | 38789 visualizaciones

Bueno amigos, nuevamente les envío una tab para los
bajistas, ojalá les ayude un poco.

Inicio tema:

A)
1------------------------------------------------------------
2------------------------------------------------------------
3--0--0-5-3-0--0-3-2-1-0-0-5-3-0--0-----------3-0- de nuevo--
4-----------------------------------3-0-3-0-3----------------

Canto:

A)
Hojas de té no se si sirven muy bien para poder hacer lo que quiero hacer
1-----------------------------------------------------------------
2-----------------------------------------------------------------
3--0--0-5-3-0--0-3-2-1-0--------------0-5-3-0--0--------------3-0-
4---------------------------------------------------3-0-3-0-3-----

  
A)
no te entendi bien, tenías o no?
la biblia también nos sirve, la fuerza o la razón.

   
A)Azúcar, café, escalofrios después
viejo y paralizado de la punta a los pies
cesante otra vez, aburrimiento sin fin
prefiero morir en la cárcel que seguie aquí

B) intro al coro
1-----------------------------------
2-------------------7-7-5-5-4-4-2-2-
3--0--0-3-3-5-5-7-7-----------------
4-----------------------------------
B)
Los recuerdos harán que te olvide Los recuerdos harán que te olvide 
1----------------------------------------------------------
2-----------------------------------7--7--5--5--4--4--2--2-
3--0--0-3-3-5-5-7-7----------------------------------------
4----------------------------------------------------------

Los recuerdos harán que te olvide  que no se te olvide acordarte...
1---------------------------------------
2---------------------------------------
3--0--0--3--3--5--5--7--7-----------0--0-
4---------------------------------------

A)  intermedio

A)En el mismo andén estoy contando hasta diez
y sin pensar demasiado piquero a la línea del tren
no caí muy bien
el tren se descarriló
a salvo, molido y consciente no lo quiero creer 

B) Los recuerdos harán que te olvide (3 veces)
que no se te olvide..

A) Que no se te olvide acordarte que me tienes que olvidar (4 veces)

FIN
1---------------
2---------------
3---------------
4--0--3--5------


En algunas tocatas el Titae toca la parte A con una nota 
Do antes del RE, me explico:
A)
1------------------------------------------------------------
2------------------------------------------------------------
3--0--3-5-3-0--0-3-2-1-0-3-5-3-0--0-----------3-0- de nuevo--
4-----------------------------------3-0-3-0-3----------------

De las dos formas suena bien, lo dejo a gusto de ustedes.

Chao.
Calificar esta versión:
Aviso: Este fichero es trabajo propio de su transcriptor y representa su interpretación personal de la canción. El material contenido en esta página es para exclusivo uso privado, por lo que se prohibe su reproducción o retransmisión, así como su uso para fines comerciales.
Más versiones de Hojas De Thé, Los Tres
Hojas De Thé
acordes
Hojas De Thé
bajo
Descubre más canciones de Los Tres