Flores Secas, Los Tres (tablatura)

Autor: Anónimo | 22253 visualizaciones

solo
e-----------|-------------|-----------------|--------------------
B-----------|-------------|-----------------|--------------------
G-------7-9-|--------7--9-|--------7-7----9-|----------7---------
D-7--10-----|--7--10------|--7--10-----10---|--7-7--10---10-7----
A-----------|-------------|-----------------|--------------------
E-----------|-------------|-----------------|--------------------

 ------------|-------------------|------------------------------------------
 ------------|-------------------|------------------------------------------
 --------9-9-|------------7------|--------9-9-9-9-9-8-7---------------------
 -7--10------|--7--1010-----10-9-|-7--10----------------10--7-7----7-7--7---
 ------------|-------------------|------------------------------------------
 ------------|-------------------|------------------------------------------

 -----------------------------------|--------------------------------|---------------------
 -7---------------------------------|--------------------------------|---------------------
 ---10-9-7--------------------------|--------------------------------|--7--7---------------
 -----------9-10-11-10-9-8-7-6------|--------------------------------|--------10--10--7----
 ------------------------------10-9-|-8h9-9-9-8h9-9-9-8h9-9-9--9--7--|---------------------
 -----------------------------------|--------------------------------|---------------------

 -----------------|-----------------------------|----------------------------------------------------
 -----------------|-----------------------------|-------------------7h8-8-8-7h8-8-8-7h8-8-8--8-8-10--
 -----------------|---------5-5-8-8-5-----------|----------5-5-8-8-----------------------------------
 -4-4---4-4-7-7-4-|-4-4-7-7-------------7-7-4-4-|--4-4-7-7-------------------------------------------
 -----------------|-----------------------------|----------------------------------------------------
 -----------------|-----------------------------|----------------------------------------------------
Calificar esta versión:
Aviso: Este fichero es trabajo propio de su transcriptor y representa su interpretación personal de la canción. El material contenido en esta página es para exclusivo uso privado, por lo que se prohibe su reproducción o retransmisión, así como su uso para fines comerciales.
Más versiones de Flores Secas, Los Tres
Flores Secas
acordes
Flores Secas
tablatura
Flores Secas
bajo
Descubre más canciones de Los Tres