El Aval, Los Tres (bajo)

Autor: Anónimo | 29177 visualizaciones

Esta canción vi que tenia algunos errores así que le hice algunas
modificaciones que creo estan mejor que la anterior
ya que le faltaban algunas notas.
Espero que les guste y si no modifiquenle lo que esta mal.

G:---------------------
D:------2---0-0--------
A:-0-2-3-3-1-----------
E:3-------------1-1-2-3

Interludo:

G:-----------------------
D:-----------------------
A:-----------------------
E:6-7-8-6-6-7-8-6-7-8-9-8  x2

Final:
G:-----------------
D:-----------------
A:3-3-1-1-1--------
E:----------1-1-2-3
Calificar esta versión:
Aviso: Este fichero es trabajo propio de su transcriptor y representa su interpretación personal de la canción. El material contenido en esta página es para exclusivo uso privado, por lo que se prohibe su reproducción o retransmisión, así como su uso para fines comerciales.
Más versiones de El Aval, Los Tres
El Aval
acordes
El Aval
tablatura
El Aval
bajo
Descubre más canciones de Los Tres