Bolsa De Mareo, Los Tres (bajo)

Autor: Anónimo | 28134 visualizaciones

riff:
  contratame una  gira por el sol
G:-----------------------------------
D:-----------------------------------
A:5-5-5-5-5-5-5-5-3-3-3-3-3-3-2-2-2-2
E:-----------------------------------

coro:
  bolsa de mareo  sentado en pie
G:-------------------------------
D:-------------------------------
A:-------------------------------x2
E:5-5-5-5-5-5-5-5/8-8-8-8-8-8-8-8

coro 2:
  te di, te doy todo no vuelvas a pedir más
G:---------------------------------------------------------
D:---------------------------------------------------------
A:---------------------------------------------------------x2
E:5-5-5-5-5-5-5-5-5-5-5-3-3-3-3-3-3-3-3-7-7-7-7-10-10-10-10

final:
  te di, te doy todo no vuelvas a pedir más
 (bolsa     de mareo   sentado en pie...)
G:---------------------------------------------------------
D:---------------------------------------------------------
A:---------------------------------------------------------
E:5-5-5-5-5-5-5-5-5-5-5-3-3-3-3-3-3-3-3-7-7-7-7-10-10-10-10

se repite varias veces, y termina con 5 en la 4ta cuerda.
bueno, eso sería todo, ojalá que les guste, chao.
Calificar esta versión:
Aviso: Este fichero es trabajo propio de su transcriptor y representa su interpretación personal de la canción. El material contenido en esta página es para exclusivo uso privado, por lo que se prohibe su reproducción o retransmisión, así como su uso para fines comerciales.
Más versiones de Bolsa De Mareo, Los Tres
Bolsa De Mareo
acordes
Bolsa De Mareo (ver 2)
acordes
Bolsa De Mareo
tablatura
Bolsa De Mareo
bajo
Bolsa De Mareo
bateria
Descubre más canciones de Los Tres