Amores Incompletos, Los Tres (bajo)

Autor: Anónimo | 24288 visualizaciones

Bueno, esta tablatura esta basada en las mismas notas que
tiene la anterior para guitarra. Podrán ver que se repite
durante toa la canción el mismo esquema.

El punto que esta luego de un numero es para que alarguen
la nota... este es mi primer aporte y espero les guste =)


Intro.

Am           Dm          Am                   Dm
1--------------------2-------------------------------2-----
2--------2—--0•--2-3---3------------------2---0•-2-3---3-0•
3—0•-2-3---3-------------0•-2-3-2-0•--2-3---3--------------
4----------------------------------------------------------

           Am                   Em          Dm         Am
1--------------------------------------------------2-------
2-2-3•-0----------2-------------------------0•-2-3---3-----
3—-------3-0•-2-3---3-0•-2-3-0----------2--------------0•--
4------------------------------3-0•-2-3---3----------------

              Em  (0:49) Amores incompletos...
1----------------||-------------------2--------------------
2------2—--------||--------2---0•-2-3---3--------2---------
3--2-3---3-0•----||-0•-2-3---3------------0•-2-3---3-0•-2-3
4-------------0•-||----------------------------------------

1------------2----------2----------------------------------
2-2---0•-2-3---3-0•-2-3---3--------2-----------------------
3—--3-----------------------0•-2-3---3-0•-2-3-0----------2-
4-----------------------------------------------3-0•-2-3---
                                (1:37)
1----------2--------------------||-------------------2-----
2---0•-2-3---3--------2—--------||--------2---0•-2-3---3---
3--------------0•-2-3---3-0•----||-0•-2-3---3------------0•
4-3--------------------------0•-||-------------------------

1----------------------------2----------2------------------
2-----2-----------2---0•-2-3---3-0•-2-3---3--------2-------
3—2-3---3-0-0/2/3---3-----------------------0•-2-3---3-0•-2
4----------------------------------------------------------
       (2:11)
1-------------------------2-------------------------------||
2------------------0•-2-3---3-------0•-2-0-2-0-2-0-2•-----||
3-3-0----------2--------------0-2-3-------------------3-0•||
4-----3-0•-2-3---3----------------------------------------||

(2:27) SOLO
1----------------2---------------------------------2-------
2-----2---0•-2-3---3--------2-----------2---0•-2-3---3-2-0•
3-2-3---3------------0•-2-3---3-0-0/2/3---3----------------
4----------------------------------------------------------
                                        (3:00)
1-----2----------------------------------------------------
2-2-3---3-2--------2--------2--------2--------------------0
3—----------0•-2-3---3-0•-0---3-0•-0---3-------------------
4----------------------------------------0•-0-3-3-0-0-3-3--

                                                 (3:16)
1-----------2----------------------------------------------
2-0-2-2-3-3---3-2------------------------------------------
3—----------------0-0-2-2-3-3-5-5/7-5-7-5-7-5-7-3-0•-0-2-3-
4----------------------------------------------------------

1----------------------------------------------------------
2---------0-0-2-3-0-0-2-3---------------------------------0
3-0—0-2-3-----------------0-0-2-3-0-0-2-3-0-0-2-3-0-0-2-3--
4----------------------------------------------------------

1-----------------2-----2-----2-----2----------------------
2-0-2-3-0-0-2-3-0---3-0---3-0---3-0---3--------------------
3—--------------------------------------0-0-2-3-0-0-2-3-0-0
4----------------------------------------------------------

1----------------------------------------------------------
2-----------------------------0-0-2-3-0-0-2-3--------------
3-2-3-0-0-2-3---------------------------------0-0-2-2-3-3-5
4-------------0-0-2-3-0-0-2-3------------------------------
               (4:05) Amores Incompletos...
1---------------------||-------------------2---------------
2---------------------||--------2---0•-2-3---3--------2----
3-5/7-5-7-5-7-5-7-3-0•||-0•-2-3---3------------0•-2-3---0•-
4---------------------||-----------------------------------

1-----------------2--------2--------2----------------------
2------2—--0•-2-3---3-2-0•---3-2-0•---3-2--------2---------
3--2-3---3--------------------------------0•-2-3---3-0•-2-3
4----------------------------------------------------------

1-----------------------2----------------------------------
2----------------0•-2-3---3----------0•-2•-0-2•-0-2•-------
3—0----------2--------------0•-2•-3•-----------------3-0•--
4---3-0•-2-3---3-------------------------------------------
(4:53) sin mirarme...
1----------------------------------------------------------
2-----------------0-0-2-3-0-0-2-3--------------------------
3-0—0-2-3-0-0-2-3-----------------0-0-2-3-0-0-2-3-0-0-2-3-0
4----------------------------------------------------------

1-----------------------2-----2-----2-----2----------------
2-------0-2-3-0-0-2-3-0---3-0---3-0---3-0---3--------------
3—0-2-3---------------------------------------0-0-2-3-0-0-2
4----------------------------------------------------------

1----------------------------------------------------------
2-----------------------------------0-0-2-3-0-0-2-3--------
3-3-0-0-2-3-0-0-2-3---------------------------------0-0-2-3
4-------------------0-0-2-3-0-0-2-3------------------------

1----------------------------------------------------------
2----------------------------------------------------------
3-0-0-2-3-0-0-2-3-0•------------F-I-N----------------------
4----------------------------------------------------------

eso es todo =D
chaUC1!
nicole te amo ^^!
Calificar esta versión:
Aviso: Este fichero es trabajo propio de su transcriptor y representa su interpretación personal de la canción. El material contenido en esta página es para exclusivo uso privado, por lo que se prohibe su reproducción o retransmisión, así como su uso para fines comerciales.
Más versiones de Amores Incompletos, Los Tres
Amores Incompletos
acordes
Amores Incompletos
bajo
Descubre más canciones de Los Tres