Hormigas Planas, Los Tetas (bajo)

Autor: Anónimo | 22280 visualizaciones

G:---------------------------------------------12-----------------------------------------
D:---------------------------------------10~12--------------------------------------------
A:9-9-10-10-11-11-12/0----------------------------0-9-9-10-10-11-11-12/0------------------
E:---------------------0-2-2-3-3-4-4-5/0---------------------------------0-2-2-3-3-4-4-5/0

G:12-----------------------¦--------------------------------------------------------------
D:---12-10-----------------¦--------------------------------------------------------------
A:-------------------------¦-----------5-5-6-------------5-6-5------------5-5-6-----------
E:---------0-2-2-3-3-4-4-5-¦-7~8~7~8-0-------0-7~8~7~8-0------0-7~8~7~8-0-------0-7~8~7~8-

G:--------------------|  ESTO SE REPITE DESDE ¦ 
D:--------------------|
A:--------------------|
E:0-8-8-8-8-8-8-8-8-0-|
 
AQUI EMPIEZA A CANTAR 
 
G:----------------|  ESTO SE VA REPITIENDO CON VARIACIONES EN EL FINAL
D:--7-----5---5-7-|  JUGANDO CON LAS NOTAS
A:----5-7---7-----|
E:5---------------|
 
 
ESTO ES CUANDO EMPIEZA LA DISTORCION Y DICE “Y LAS OLAS TAMBIEN”
 
G:------| JUEGEN CON ESTAS NOTAS POR QUE SE REPITEN EN ESA PARTE
D:--7-7-|
A:------|
E:5-----|
 
 
AHORA VIENE “ESTAS COMIENDO”
 
G:--------------------------------12-| LUEGO DE ESTO, SE REPITE LO MISMO QUE CUANDO EMPIEZA A 
D:--------------------------10-12----| CANTAR, HASTA EL PUNTEO DE LA GUITARRA
A:-----------------------------------|
E:7-7-7-7-7-7-7-7-8-8-8-8-7----------|
 
 
 
G:------12--------------------| ESTO SE TOCA JUNTO CON EL PRIMER PUNTEO
D:10-12----8~10~8-------------|
A:----------------10-0-8-9-10-|
E:----------------------------|
 
 
DISTORCION
 
G:--------------------------------------4-| SE REPITE HASTA EL SEGUNDO PUNTEO DE LA GUITARRA.
D:--------------4-4-4~6---------4-4-4~6---| JUNTO CON EL PUNTEO SE TOCA ALGO PARECIDO A
A:--------4-5-2-----------4-5-2-----------| CUANDO CANTA, PERO CON VARIACIONES
E:2-3-4-5---------------0-----------------|
 
 
G:--------------------------------------------------| ESTO SE REPITE
D:--------------5-------------------------5---------|
A:5-5-5-----5-----5-5-5-5-5-5-5-5-----5-----5-------|
E:------5~7---7-------------------5~7---7-----0-5-5-|
 
 
G:------------------------------4-¦ AL FINAL CAMBIA SOLO ------------------7/0|
D:------4-4-4~6---------4-4-4~6---¦                      ---------------------|
A:4-5-2-----------4-5-2-----------¦                      -4-5-2-4-5-7-5-5--5/0|
E:--------------0-----------------¦                      ---------------------|
Calificar esta versión:
Aviso: Este fichero es trabajo propio de su transcriptor y representa su interpretación personal de la canción. El material contenido en esta página es para exclusivo uso privado, por lo que se prohibe su reproducción o retransmisión, así como su uso para fines comerciales.
Más versiones de Hormigas Planas, Los Tetas
Hormigas Planas
tablatura
Hormigas Planas
bajo
Descubre más canciones de Los Tetas