Eres Un Sueño, Los Temerarios (tablatura)

Autor: Anónimo | 34497 visualizaciones



Armoniza en Do mayor
Introduccion de la cancion.
e---------------------3-3/5-1-1/3-1-0-1-0-1-0-------0-
B-----1-1-1/3-1--1-0--------------------------3-1--1--
G-2-2---------------------------------------------0---
D-----------------------------------------------------
A-----------------------------------------------------
E-----------------------------------------------------

Requinto de intermedio

e---------------------3-3/5-1-1/3-1-0-1-0-1-0------
B-----1-1-1/3-1--1-0---------------------------3-1-
G-2-2----------------------------------------------
D--------------------------------------------------
A--------------------------------------------------
E--------------------------------------------------

e-----------------------------------
B-3-1-3-1-0-2-----------------------
G-------------0-0-2--2-2-0----------
D--------------------------3-2-0----
A---------------------------------3-
E-----------------------------------





Calificar esta versión:
Aviso: Este fichero es trabajo propio de su transcriptor y representa su interpretación personal de la canción. El material contenido en esta página es para exclusivo uso privado, por lo que se prohibe su reproducción o retransmisión, así como su uso para fines comerciales.
Más versiones de Eres Un Sueño, Los Temerarios
Eres Un SueÑo
acordes
Eres Un Sueño
tablatura
Descubre más canciones de Los Temerarios