Aléjate, Los Temerarios (tablatura)

Autor: Anónimo | 19529 visualizaciones



Armoniza en LA mayor
Introducsion
e---------------------------------------------------
B---------------------------------------------------
G------------2----4-4-2-2-1--1-2-1------------------
D-----0-2--2--2-4------------------4-2--2/42-------
A-4-4-----------------------------------------2/42-
E---------------------------------------------------

Requinto de intermedio
e-9-7----7---------10-10-10-9-7----9-7----7-----------------------
B-----10---10-7--7--------------10-----10--10-9--7-9-10-9-7-------
G-----------------------------------------------------------9-7-6-
D-----------------------------------------------------------------
A-----------------------------------------------------------------
E-----------------------------------------------------------------

e-9-7----7---------10-10-10-9-7--------9-7----7-----7-9-10-9-7----
B-----10---10-7--7--------------10--10-----10--10-9------------10-
G-----------------------------------------------------------------
D-----------------------------------------------------------------
A-----------------------------------------------------------------
E-----------------------------------------------------------------

Final
e---10-10-10-9-7----9-7----7-----7-9-10-9-7-----
B-7--------------10-----10--10-9-------------10-
G-----------------------------------------------
D-----------------------------------------------
A-----------------------------------------------
E-----------------------------------------------





Calificar esta versión:
Aviso: Este fichero es trabajo propio de su transcriptor y representa su interpretación personal de la canción. El material contenido en esta página es para exclusivo uso privado, por lo que se prohibe su reproducción o retransmisión, así como su uso para fines comerciales.
Más versiones de Aléjate, Los Temerarios
Aléjate
acordes
Aléjate
tablatura
Descubre más canciones de Los Temerarios