Déjame, Los Secretos (tablatura)

Autor: Anónimo | 28222 visualizaciones

Intro

   Dm7
e|--1-1-0-1--1-1-0-1--1-1-0-1------3----------
B|--1-1-1-1--1-1-1-1--1-1-1-1--1h3------------
G|--2-2-2-2--2-2-2-2--2-2-2-2-----------------
D|--------------------------------------------
A|--------------------------------------------
E|--------------------------------------------


Con los acordes que estan en otro tab (intro y final)

   G        Em       C        D 
e|-3-3-2-3--3-3-2-3--3-3-2-3------5------------
B|-3-3-3-3--3-3-3-3--3-3-3-3--3h5--------------
G|-0-0-0-0--0-0-0-0--0-0-0-0-------------------
D|---------------------------------------------
A|---------------------------------------------
E|---------------------------------------------


Solo con acordes verso

e|-10-12-10----------10------8-10-8-10-12-8----
B|-10-------13-12-12----12---8----8------------   x3
G|---------------------------------------------
D|---------------------------------------------
A|---------------------------------------------
E|---------------------------------------------

e|--10-10-10-10-8-----------------------------
B|--10-10-12-10-6-----------------------------
G|--------------------------------------------
D|--------------------------------------------
A|--------------------------------------------
E|--------------------------------------------
Calificar esta versión:
Aviso: Este fichero es trabajo propio de su transcriptor y representa su interpretación personal de la canción. El material contenido en esta página es para exclusivo uso privado, por lo que se prohibe su reproducción o retransmisión, así como su uso para fines comerciales.
Más versiones de Déjame, Los Secretos
Dejame
acordes
Déjame
tablatura
Déjame
bajo
Descubre más canciones de Los Secretos