La Fuga, Los Ratones Paranoicos (tablatura)

Autor: Anónimo | 27871 visualizaciones



RIFF PRINCIPAL E INTRO:

e--10-10-7s5-7-----5--7-3----10-10-7s5-7-----5--7-3--
B--10-10-7s5-7-----5--7-3----10-10-7s5-7-----5--7-3--
G----------------5-------------------------5---------
D----------------------------------------------------
A----------------------------------------------------
E----------------------------------------------------


VERSOS:

       RE  SOL  LA SOL
Cómo llega
       RE  SOL  LA SOL
el recuerdo
       RE    SOL    LA  SOL
Por querer pasarla bien
       RE    SOL   LA   SOL
Sigo adentro

Hoy las noches
son eternas
Solo pienso en como hacer
lo que venga

MI ventana
Ya no sopla
Sin el frío y el calor
de tu boca

Es muy duro
El invierno
Solo dejo de llorar
SI te veo


PUENTE:

       LA          SOL
Cuando salga del encierro
   RE                   LA7
Correremos a la gran ciudad
MIm  SOL       RE         LA
Una balza me espera en el río
MIm   SOL          LA
Y eso nos podrá salvar


ESTRIBILLO:

        RE          SOL  LA SOL
        Tengo que salir
D-----------------------------------------
A-7s10~-------------------------10-7-5s3--
E-----------------------------------------
D-----------------------------------------
A-----------------------------------------
E-----------------------------------------

RE          SOL    LA    SOL
Tengo que esperar para salir

       RE           SoL    LA   SOL
       Gracias a tu amor estoy aqui
D----------------------------------------------------
A-7s10~-----------------------------10-7-5s3---------
E----------------------------------------------------
D----------------------------------------------------
A----------------------------------------------------
E----------------------------------------------------

RE          SOL
Tengo que salir


1er SOLO DE GUITARRA (falta sacar)


PUENTE:

MIm  SOL       RE         LA
Una balza me espera en el río
MIm   SOL          LA
Y eso nos podrá salvar


ESTRIBILLO:

        RE          SOL  LA SOL
        Tengo que salir
D-----------------------------------------
A-7s10~-------------------------10-7-5s3--
E-----------------------------------------
D-----------------------------------------
A-----------------------------------------
E-----------------------------------------

RE          SOL    LA    SOL
Tengo que esperar para salir

       RE           SoL    LA   SOL
       Gracias a tu amor estoy aqui
D----------------------------------------------------
A-7s10~-----------------------------10-7-5s3---------
E----------------------------------------------------
D----------------------------------------------------
A----------------------------------------------------
E----------------------------------------------------

RE          SOL
Tengo que salir


2do SOLO DE GUITARRA


FIN


Mi mail es [email protected], si alguno tiene alguna duda
sobre la tablatura o si sacó los solos de guitarra de la canción
o simplemente le gustan los Ratones puede agregarme.





Calificar esta versión:
Aviso: Este fichero es trabajo propio de su transcriptor y representa su interpretación personal de la canción. El material contenido en esta página es para exclusivo uso privado, por lo que se prohibe su reproducción o retransmisión, así como su uso para fines comerciales.
Más versiones de La Fuga, Los Ratones Paranoicos
La Fuga
acordes
La Fuga
tablatura
Descubre más canciones de Los Ratones Paranoicos