La Banda De Rock And Roll, Los Ratones Paranoicos (tablatura)

Autor: Anónimo | 34359 visualizaciones



INTRO FAM-MIM-SOLM
                          FAº
E----------------------        E--5--
B----------------------        B--5--
D--6-5-----------------        D--5--
G--4-3-----------------        G--5--
A-------5-7-8-7-5-7-8-7        A--5--
E-------3-------3------        E----

E-11b-11h9------------------------------------------
B---------11b-11h9---------9h11h9-------------------
D------------------11-9-11--------11-----11-9-11-9--
G---------------------------------------------------
A---------------------------------------------------
E---------------------------------------------------

SOLM                 REM  REº
YA NO PUEDO DEJAR, DE TOCAR ROCK AND ROLL
LAM                  DOM         SOLM
TODO EL TIEMPO ESTOY EN ESTE LUGAR.
                           REM REº
YA NO PUEDO DEJAR MI BANDA DE ROCK AND ROLL
LAM             DOM       SOLM
TODO EL DIA VOY A ESE LUGAR.

E-9b-7---------7---------------10-12-12-10-12-12-14b-
B------9b-7-9b---------9h7---------------------------
D--------------------------9-------------------------

E-12-------------------------------------------------
B----14-12-10----10----10-12-14-12-10---------9-9-11-
D-------------12----12----------------------9--------

E-------------------------------------
B-9-11-11b-9--------------------------
D------------11b-9---------9-11-9-----
G------------------11-9-11--------11--

SOLM                REM REº
YA NO PUEDO DEJAR DE TOCAR ROCK AND ROLL
LAM             DOM      SOLM
TODO EL DIA VOY A ESE LUGAR
SOLM                REM REº
IMPOSIBLE DEJAR DE TOCAR ROCK AND ROLL B-11H9----9-11H9-7-
SIM    REM  LAM SOLM                   D------11----------
EL DIA YA SE VA

E-11-11-11-11-11-11--11b-11b-----------------
B----------------------------9-9-11-11b-11b--
D--------------------------------------------

E-12-14-14-14-14-14-16-18-16-14-------------------------
B-------------------------------16-14-12-14-16-14-12----
D----------------------------------------------------14-

E-11h13h11-11h13h11-11h13h11-11h13h11-11h13h11-
B----------------------------------------------
D----------------------------------------------

E-----------------------------------------------------
B-11-9-------------------------------11-9----9-11-9-----
D------11-9---------9-11-9----------------11--------11---
G-----------11-9-11--------11--------------------------

E-----------------------------------------
B----------------------------------------
d-9---------9-11-9----------------------------
G---11-9-11--------11----------------------------
                     REM REº
YA NO QUIERO DEJAR MI BANDA DE ROCK AND ROLL
SIM      REM  LAM SOLM
TU CUERPO YA SE VA                   G-11h9----9-11h9-----
INTRO           INTRO                A------11--------11--
NO PUEDO DEJAR, NO PUEDO DEJAR.      E--------------------


La saque a oido si hay alguna correcion haganmela saber,
Aguante los Ratones....... sugerencias a [email protected]

Fuente original: LaCuerda
Colaborador original: Sebastian [[email protected]]





Calificar esta versión:
Aviso: Este fichero es trabajo propio de su transcriptor y representa su interpretación personal de la canción. El material contenido en esta página es para exclusivo uso privado, por lo que se prohibe su reproducción o retransmisión, así como su uso para fines comerciales.
Más versiones de La Banda De Rock And Roll, Los Ratones Paranoicos
La Banda De Rock And Roll
acordes
La Banda De Rock And Roll
tablatura
Descubre más canciones de Los Ratones Paranoicos