Será, Los Rancheros (tablatura)

Autor: Anónimo | 42475 visualizaciones

Bueno esta es mi primer transcripcion pero llevo años
tocando la guitarra y les aseguro q esta 10 puntos...
Aguante el rock and roll!!!! Leo


Intro:

1 --------0h2---------------------0-----------
2 ------3-----------2h3---------3-------3--2--
3 ----2-----------4-----------0---------2--0--
4 --0-----------4-----------------------2--2--
5 ------------2----------------------0--------
6 -------------------------3------------------

Versos = Intro



Puente:

 G     A                D

Y el amor sobre la hierba

 G      A                 D - Dsus2 - Dsus4 - D

Hizo mágicas las siestas.



Estribillo:

D           A    G         A

Sigue tu camino, siempre será el mío

D            A      G     A        D

Sigue tu camino y así libre serás.

                   A

Será como tu quieras

  G            A        D

Será mejor morir de amor.



Solo


1 --------------------------------------------
2 -----3-3---3h5---3-------3-3---3h5----------
3 -2h4-----4-----4-----2h4-----4-----4-4h2-2--
4 --------------------------------------------
5 --------------------------------------------
6 --------------------------------------------

1 --------------------------------------------
2 -----3-3---5b7r5-3-5--5-3-5b7r5-3-5-----3-5-
3 -2h4-----4--------------------------2h4-----
4 --------------------------------------------
5 --------------------------------------------
6 --------------------------------------------

1 --------------------------------------------
2 -5b7r5-3---3-5-5b7r5------------------------
3 ---------4----------------------------------
4 --------------------------------------------
5 --------------------------------------------
6 --------------------------------------------
Calificar esta versión:
Aviso: Este fichero es trabajo propio de su transcriptor y representa su interpretación personal de la canción. El material contenido en esta página es para exclusivo uso privado, por lo que se prohibe su reproducción o retransmisión, así como su uso para fines comerciales.
Más versiones de Será, Los Rancheros
Sera
acordes
Sera (ver 2)
acordes
Será
tablatura
Será (ver 2)
tablatura
Descubre más canciones de Los Rancheros