Me Cansé De Amarte, Los Rancheros (tablatura)

Autor: Anónimo | 38677 visualizaciones

 ESPERO Q LES GUSTE LA SAKE A OIDO CUALQUIER COSA CORRIGANLAN!!

INTRO: G C X2

    G            C           C
E---3--3--3--------------------------------0-----3--3--3--------
B---3--3--3------1--1--------1-----1--1----1-----3--3--3--1--1--
G---0-----0------0--0--------0-----0--0----0-----0-----0--0--0--
D---0-----0------0--2--------2-----0--2----2-----0--------0--2--
A---2------------3--3--------3-----3--3----------2--------3--2--
E---3--------------------------------------------3--------------
              (ligados)          (ligados)                (ligados)


      G        Am7                   Bm         Bm7
E-----3-----------------------------------------------------------
B-----3--------------1--0------------3-----------------3----------
G-----0-----------0-------2--0-------4--------------0------0------
D-----0--------0---------------------4----------4-------------4---
A-----2-----------------------------------------------------------
E-----3-----------------------------------------------------------
   Se terminó                   Y   esta ves

        C                 C7                  D
E-------------------------------------------------3-------2-----0--2-2---
B-------1------------------3-----------------3------3---3---3---3--3--3--
G-------0---------------0-----0------------2---2------2-------2---------2
D-------2-------------2-----------2-------0------------------------------
A-------3----------------------------------------------------------------
E-----------------------------------------------------------------------
    No quiero mas mentiras           para que?
       G             Am7             Bm             Bm7
E------3----------------------------------------------------------------
B------3----------------1--0------------3-----------------3-------------
G------0--------------0--------2--0-----4--------------0-----0----------
D------0-----------0--------------------4----------4------------4-------
A------2----------------------------------------------------------------
E------3----------------------------------------------------------------
    No quiero estar                 fingiendo amor,
        C                C7
E---------------------------------------------3-------2-----0--2-2-----
B-------1------------------3--------------3-----3---3---3---3--3---3---
G-------0---------------0-----0---------2---2-----2-------2----------2-
D-------2------------2-----------2----0--------------------------------
A-------3--------------------------------------------------------------
E----------------------------------------------------------------------
   Crucemos esa línea,               No queda otra salida
            G                D               E
E--------------------------------------------0-------------------
B-----------------3-------------3------------0---------3---------
G---------------0---0---0----2----2---2------0-----0------0----2-
D-------------0-------0---0---------0--------2---2---2-------2---
A--------------------------------------------2-------------------
E-----------3----------------------------------------------------
   Me cansé,                         de amarte
            C                                 D
E---------------------------------------------3-2-0-2-------------
B-----------1----------3-----------------3----3-3-3-3-------------
G-----------0-------0-----0-----------2-------2-2-2-2-------------
D-----------2----2-----------2------0-----------------------------
A-----------3-----------------------------------------------------
E-----------------------------------------------------------------
      Y no hay                   solución,


INTRO G C X2

          G
La vida fue
     Bm
cambiándome
     C           Am7          D
No siento tus caricias como ayer
   G        Bm
Aquí no hay otra mujer
   C                  Am7
Y yo te estoy dejando
                D
Muy solo caminando

     G  D       Em
Me cansé, de amarte
     C Am7     D
Y no hay solución
     G  D       Em
Me cansé de amarte
     C Am7     D
Y no hay solución

PUNTEO:

E------------------------------------------
B--5-7-8-7-5---------------8----8---8---8-
G-------------7~--------------11---9---7---
D------------------------------------------
A---------------------5-7~-----------------
E-----------------7-8----------------------

E--------------------10-------------10-10--12-----------
B------------------10---12-10---/10------------12-10-8--
G------------5-7-9--------------------------------------
D-------------------------------------------------------
A------5------------------------------------------------
E--7-8---8~---------------------------------------------



en esta part lo hac parecido a la primera
          G
Si todo fue,
   Bm
felicidad,
     C           Am7             D
Guardemos el recuerdo hasta la eternidad,
      G          Bm
No quiero estar contigo mas,
    C               Am7
No me preguntes nada,
                  D
Me iré por la mañana
 Me canse..........
Calificar esta versión:
Aviso: Este fichero es trabajo propio de su transcriptor y representa su interpretación personal de la canción. El material contenido en esta página es para exclusivo uso privado, por lo que se prohibe su reproducción o retransmisión, así como su uso para fines comerciales.
Más versiones de Me Cansé De Amarte, Los Rancheros
Me Canse De Amarte
acordes
Me Cansé De Amarte
tablatura
Descubre más canciones de Los Rancheros