El Che Y Los Rollings Stones, Los Rancheros (acordes) (ver 2)

Autor: Correntina | 36467 visualizaciones

asosamcdmfg
[Introducción]
C  Dm  F  G  C    [F  G]

e:-3-3-3-3-3-1-0-------1-1-1-0---------1-1-1-0-----0-----|
B:---------------3-3-3---------3-1-1-1---------3-1---1---|
G:-----------------------------------------------------0-|
D:-------------------------------------------------------|
A:-------------------------------------------------------|
E:-------------------------------------------------------|


[Estrofas]
 C                        Dm
Contra una pared dejé pintados
                      F
nuestros nombres enlazados,
      G            C        F G
salpicados con el aerosol.

 C                         Dm
Junto a una leyenda que decía:
                    F 
"Escapemos de ésta vida,
         G                    C
viva el Che y los Rollings Stones".


[Puente]
A#       F     C
Y me alejé de tí,
A#          F     C    G
suerte que te perdí, uuooh.


[Estrofas]
 C                          Dm
Fuimos como una tribu de salvajes,
                   F
defendiendo con coraje
        G            C    F G
lo que dicta el corazón.

   C                            Dm
Recuerdo bien la tarde en el pasillo,
                   F
que sacaste un cuchillo
      G          C
y probamos el dolor.


[Puente]
A#       F     C
Y me alejé de tí,
A#          F     C    G
suerte que te perdí, uuooh.


[Coro]
F           C
Fuiste tan dulce nena
G          Am
pero a la vez perversa,
F              C          G
siempre me hablabas de morir.
F        C
Y te seguí los pasos,
G          Am
hasta que tu locura
F        C           G
me comenzaba a destruir.


[Introducción]
C  Dm  F  G  C    [F  G]

e:-3-3-3-3-3-1-0-------1-1-1-0---------1-1-1-0-----0-----|
B:---------------3-3-3---------3-1-1-1---------3-1---1---|
G:-----------------------------------------------------0-|
D:-------------------------------------------------------|
A:-------------------------------------------------------|
E:-------------------------------------------------------|


[Estrofas]
 C                            Dm
Fuimos a una iglesia en madrugada,
                    F
estabas tan desesperada
      G               C    F G
creo que querías cambiar.

 C                          Dm
Como nadie vino a abrir la puerta,
                 F
te diste media vuelta
            G              C
diciendo: "Dios aquí no está".


[Puente]
A#       F     C
Y me alejé de tí,
A#          F     C    G
suerte que te perdí, uuooh.


[Coro]
F           C
Fuiste tan dulce nena
G          Am
pero a la vez perversa,
F              C          G
siempre me hablabas de morir.
F        C
Y te seguí los pasos,
G          Am
hasta que tu locura
F        C           G
me comenzaba a destruir.


[Introducción]
C  Dm  F  G  C    [F  G]

e:-3-3-3-3-3-1-0-------1-1-1-0---------1-1-1-0-----0-----|
B:---------------3-3-3---------3-1-1-1---------3-1---1---|
G:-----------------------------------------------------0-|
D:-------------------------------------------------------|
A:-------------------------------------------------------|
E:-------------------------------------------------------|
Calificar esta versión:
Aviso: Este fichero es trabajo propio de su transcriptor y representa su interpretación personal de la canción. El material contenido en esta página es para exclusivo uso privado, por lo que se prohibe su reproducción o retransmisión, así como su uso para fines comerciales.
Más versiones de El Che Y Los Rollings Stones, Los Rancheros
El Che Y Los Rollings Stones
acordes
El Che Y Los Rollings Stones (ver 2)
acordes
El Che Y Los Rollings Stones
tablatura
Descubre más canciones de Los Rancheros