La Que Me Da Lugar, Los Pericos (bajo)

Autor: Anónimo | 45505 visualizaciones



Verso
G|------------------------|x4
D|------------------------|
A|-5--5-----------------3-|
E|------5--5-3-3-2--3-5---|

Coro
G|------------------------|x4
D|------------------------|
A|-5--5-----------------3-|
E|------5--5-3-3-2--3-5---|

Verso
G|------------------------|x4
D|------------------------|
A|-5--5-----------------3-|
E|------5--5-3-3-2--3-5---|

Coro
G|------------------------|x4
D|------------------------|
A|-5--5-----------------3-|
E|------5--5-3-3-2--3-5---|

Verso 2 (Pide una flor...)
G|--------------------|x4
D|--------------------|
A|---------5----------|
E|-3--3-3-----5--5-4--|

Verso
G|------------------------|x4
D|------------------------|
A|-5--5-----------------3-|
E|------5--5-3-3-2--3-5---|

Coro
G|------------------------|x4
D|------------------------|
A|-5--5-----------------3-|
E|------5--5-3-3-2--3-5---|

Verso 2 (Pide una flor...)
G|--------------------|x4
D|--------------------|
A|---------5----------|
E|-3--3-3-----5--5-4--|

Solo de Guitarra
G|------------------------|x4
D|------------------------|
A|-5--5-----------------3-|
E|------5--5-3-3-2--3-5---|

Puente (La que me da lugar...)
G|-----------------------------------|----------------------------------|
D|-----------------------------------|----------------------------------|
A|------------------5555555555555555-|----------------55555555----------|
E|-3333333333333333------------------|-33333333333333----------55555555-|

Coro **Hasta el Final**
G|------------------------|x16
D|------------------------|
A|-5--5-----------------3-|
E|------5--5-3-3-2--3-5---|

Fuente original: LaCuerda
Colaborador original: Sebastián Vidondo [rojoamargodelsiglo@yahoo.com.ar]





Calificar esta versión:
Aviso: Este fichero es trabajo propio de su transcriptor y representa su interpretación personal de la canción. El material contenido en esta página es para exclusivo uso privado, por lo que se prohibe su reproducción o retransmisión, así como su uso para fines comerciales.
Más versiones de La Que Me Da Lugar, Los Pericos
La Que Me Da Lugar
acordes
La Que Me Da Lugar
bajo
Descubre más canciones de Los Pericos