Casi Nunca Lo Ves, Los Pericos (bajo)

Autor: Anónimo | 34260 visualizaciones



Intro

G-----------------------------
D---------------------4-------
A-------------------4---------
E-2--2--0-2--0-2-22-----2-02--(x2)

G------------------------------------------------
D------------------------------------------------
A-5-3-2------------77--77-0-55-0-55-0-55-05-05-0-
E-------0-55-055-7---7---------------------------

G------------------------------------------
D------------------------------------------
A------------77--77-0-55-0-55-0-55-05-05h7-
E-0-55-055-7---7---------------------------

Verso No hay lugar...

G------------------------------------------
D------------------------------------------
A------------77--77-0-55-0-55-0-55-05-05-0-
E-0-55-055-7---7---------------------------

G------------------------------------------
D------------------------------------------
A------------77--77-0-55-0-55-0-55-05-05h7-
E-0-55-055-7---7---------------------------

Hollywood queda...

G------------------------------------------
D------------------------------------------
A------------77--77-0-55-0-55-0-55-05-05-0-
E-0-55-055-7---7---------------------------

G------------------------------------------
D------------------------------------------
A------------77--77-0-55-0-55-0-55-05-05h7-
E-0-55-055-7---7---------------------------

Y entre la gente...

G--------------------------------------------------------------------------------
D---------------------------------------------------------------------44-55-66-7-
A-----------------------77---77---77---77--22-222-022-222-0-44-444-044-----------
E-0-55-0-55-0-55-0-55-7----7----7----7-------------------------------------------

Cuando la excusa...                                                     ...a oscuras (lo de abajo bien rapido)

G-----------------------------------------------------------------------------------------------------
D-----------------------------------------------------------------------------------------------------
A------------------------77---77---77---7---7-22--22---22---22-44444444s14h16-14h16-14h16-14h16-14h16-
E-0-55-0-55-0-55-05-05-7----7----7----7---7------2---2----2-------------------------------------------

Todo llega...

G------------------------------------------
D------------------------------------------
A------------77--77-0-55-0-55-0-5-4--------
E-0-55-055-7---7--------------------7-5-0--

G------------------------------------------
D------------------------------------------
A------------77--77-0-55-0-55-0-55-05-05h7-
E-0-55-055-7---7---------------------------

Nada entendés...

G------------------------------------------
D------------------------------------------
A------------77--77-0-55-0-55-0-55-05-05-0-
E-0-55-055-7---7---------------------------

G------------------------------------------
D------------------------------------------
A------------77--77-0-55-0-55-0-55-05-05h7-
E-0-55-055-7---7---------------------------

Y la ignorancia...

G--------------------------------------------------------------------------------
D---------------------------------------------------------------------2---4-55-7-
A-----------------------77---77---77---77h9-22-222-022-222-44-444-0444-----------
E-0-55-0-55-0-55-0-55-7----7----7----7-------------------------------------------

Cuando la excusa...

G--------------------------------------------------------------------------------------
D----------------------------------------------------------44444444-2-4-2--------------
A-----------------------77---77---77---77h9-22-222-022-222----------------4-2-1-0------
E-0-55-0-55-0-55-0-55-7----7----7----7--------------------------------------------4--2-

Iintervalo

G-----------------------------
D-----------------------------
A-----------------------------
E-2--2--0-2--0-2-22--2-02-----

G------------------------------------------
D------------------------------------------
A------------77--77-0-55-0-55-0-55-05-05-0-
E-0-55-055-7---7---------------------------

G------------------------------------------
D------------------------------------------
A------------77--77-0-55-0-55-0-55-05-05h7-
E-0-55-055-7---7---------------------------

Nada entendés...

G------------------------------------------
D------------------------------------------
A------------77--77-0-55-0-55-0-55-05-05-0-
E-0-55-055-7---7---------------------------

G------------------------------------------
D------------------------------------------
A------------77--77-0-55-0-55-0-55-05-05h7-
E-0-55-055-7---7---------------------------

Y entre la gente...

G---------------------------------------------------------------------666-
D-----------------------------------------------------------------666-----
A-------------------------7-77-----7-77--22-222-022-222-3-444-777---------
E-0-55-0-55-0-55-0-55-444------444----------------------------------------

Cuando la excusa... 

G----------------------------------------------------------------------------
D-------------------------------------------------------------44444----44444-
A----------------7---7-----7-777----7-7-7-22-222-022-222-3-44----------------
E-0-55-0-55-0-55---5---5-44------44---------------------------------22-------

Ahh casi nunca lo ves...
                                                  
G-------------------------------------------------------------------------------
D-----------------------------------------4444-----4444-----6666------2-0-------
A-----------------------7777-----7777-222------222------444------444------4-2---
E-555005550055500555-444------444---------------------------------------------5-

Ahh casi nuuuuuunca lo ves...

G----------------------------------------------------------------------
D-----------------------------------------------------4444444----------
A-----------------------7777-----7-7-7-22-222-022-222------------------
E-555005550055500555-444------444-----------------------------222222-4-

Ahh casi nunca lo ves...

G-----------------------------------------------------------------------
D-----------------------------------------------------------------------
A-------------------------------------222222222222222-444444444444444-7-
E-555005550055500555-4444444444444444-----------------------------------

Ahh casi nuuuuuunca lo ves... Nota: Al final puse las ( | ) para que sepan que es D y G once y no uno seguido.

G---------------9-------99999-------9---9-------------------------------------------|11|11|11|11---------------
D-77777777777777-77-666-------666-6---6---6-9999999-7h9999-7h9999------|11|11|11|11--------------|11|11--------
A-----------------------------------------------------------------9999-----------------------------------9s2---
E------------------------------------------------------------------------------------------------------------2-

Final 

G---------------
D---------------
A---------------
E---2-----------

Fuente original: LaCuerda
Colaborador original: Alejandro Wasil [alewasil@hotmail.com]





Calificar esta versión:
Aviso: Este fichero es trabajo propio de su transcriptor y representa su interpretación personal de la canción. El material contenido en esta página es para exclusivo uso privado, por lo que se prohibe su reproducción o retransmisión, así como su uso para fines comerciales.
Más versiones de Casi Nunca Lo Ves, Los Pericos
Casi Nunca Lo Ves
acordes
Casi Nunca Lo Ves
tablatura
Casi Nunca Lo Ves
bajo
Descubre más canciones de Los Pericos