El Andariego, Los Panchos (tablatura)

Autor: Anónimo | 20388 visualizaciones

|-----------------------------------------------------|
|-------0----3--2--3---2--3--2--3--2--3---4--5--5--3-1|
|----1-------4--3--4---3--4--3--4--3--4---5--5--5--4-2|
|-2---------------------------------------------------|
|-----------------------------------------------------|
|-----------------------------------------------------|
              
|-----------------------------------------------------|
|-------0----3--2--3---2--3--2--3--2--3---4--5--5--3-1|
|----1-------4--3--4---3--4--3--4--3--4---5--5--5--4-2|
|-2---------------------------------------------------|
|-----------------------------------------------------|
|-----------------------------------------------------|

|-------0----3--2--3--2--3--2--3--2--3--4--5--5---3--2|
|----2-------5--4--5--4--5--4--5--4--5--6--6--6---4--3|
|-2---------------------------------------------------|
|-----------------------------------------------------|
|-----------------------------------------------------|
|-----------------------------------------------------|
              
|-------0--1---3---1h3--0-------1---0-----------------|
|----3----------------------3-----------3--1--0-------|
|------------------------------------------------2--1-|
|-----------------------------------------------------|
|-----------------------------------------------------|
|-----------------------------------------------------|

|--------------------------------------------0--------|
|--------------------------------------------1--------|
|--------------------------------------------2--------|
|--3---2----0-----------------------------2-----------|
|----------------3-----2-----0------3-----------------|
|-----------------------------------------------------|
Calificar esta versión:
Aviso: Este fichero es trabajo propio de su transcriptor y representa su interpretación personal de la canción. El material contenido en esta página es para exclusivo uso privado, por lo que se prohibe su reproducción o retransmisión, así como su uso para fines comerciales.
Más versiones de El Andariego, Los Panchos
El Andariego
acordes
El Andariego
tablatura
Descubre más canciones de Los Panchos