Amor Ya No Me Quieras Tanto, Los Panchos (tablatura)

Autor: Anónimo | 44701 visualizaciones

[xx] = tremolo.

------13-13-13-13--12--13--15--13--12------12-12-12-12------12--13--12----------
--------------------------------------------------------15--------------15-----
--14-----------------------------------13-------------------------------------
-----------------------------------------------------------------------------
----------------------------------------------------------------------------
----------------------------------------------------------------------------



-----------------------------------------------------------------------------
--10------10--11--10--13--12--11--10--[10]----------10--[10]-------------------
------13------------------------------[ 9]--10--12------[12]--10--9--10---------
-------------------------------------------------------------------------------
--------------------------------------------------------------------------------
------------------------------------------------------------------------------


------13-13-13-13--12--13--15--13--12------12-12-12-12------12--13--12----------
--------------------------------------------------------15--------------15-----
--14-----------------------------------13-------------------------------------
-----------------------------------------------------------------------------
----------------------------------------------------------------------------
----------------------------------------------------------------------------

-----------------------------------------------------------------------------
--10------10--11--10--13--12--11--10--[10]----------10-------------------------
------13------------------------------[ 9]--10--12------12--9--10---------------
-------------------------------------------------------------------12------------
--------------------------------------------------------------------------------
------------------------------------------------------------------------------
Calificar esta versión:
Aviso: Este fichero es trabajo propio de su transcriptor y representa su interpretación personal de la canción. El material contenido en esta página es para exclusivo uso privado, por lo que se prohibe su reproducción o retransmisión, así como su uso para fines comerciales.
Más versiones de Amor Ya No Me Quieras Tanto, Los Panchos
Amor Ya No Me Quieras Tanto
acordes
Amor Ya No Me Quieras Tanto
tablatura
Descubre más canciones de Los Panchos