Olvídala, Los Palmeras (tablatura)

Autor: Anónimo | 40943 visualizaciones



Esta es una versión de "Olvídala" con el intro de acordeón sacado
en guitarra, y a pesar que lo saqué a oído estoy un 99% seguro
de que es así, parece dificil pero con unos minutos practicando
sale.
Espero que lo disfruten!

Intro:

|--------9--10--12--14-12----14-12----14-12----14-12----14-12--|
|-10--12-----------------15-------15-------15-------15-------15|
|--------------------------------------------------------------|
|--------------------------------------------------------------|
|--------------------------------------------------------------|
|--------------------------------------------------------------|

|-12-10-9-12-10-9-12-10-9-12-10-9-12-10-9-10-9-7-10-9-7-10-9-7-|
|--------------------------------------------------------------|
|--------------------------------------------------------------|
|--------------------------------------------------------------|
|--------------------------------------------------------------|
|--------------------------------------------------------------|

|10-9-7-10-9-7-----2-4--7-5-3--7-5-3--7-3--9-7-5--9-7-5--9-5---|
|---------------5---------------------------------------------7|
|--------------------------------------------------------------|
|--------------------------------------------------------------|
|--------------------------------------------------------------|
|--------------------------------------------------------------|

|-4-6------------10-9-----9-12-10------------------------------|
|-------12-10-12-------10--------------------------------------|
|--------------------------------------------------------------|
|--------------------------------------------------------------|
|--------------------------------------------------------------|
|--------------------------------------------------------------|

ACORDES[Re,La,Sol,La]





Calificar esta versión:
Aviso: Este fichero es trabajo propio de su transcriptor y representa su interpretación personal de la canción. El material contenido en esta página es para exclusivo uso privado, por lo que se prohibe su reproducción o retransmisión, así como su uso para fines comerciales.
Más versiones de Olvídala, Los Palmeras
Olvídala
acordes
Olvídala
tablatura
Descubre más canciones de Los Palmeras