El Bombón Asesino, Los Palmeras (tablatura)

Autor: Anónimo | 26126 visualizaciones



Intro e Intermedio
Posicion de REm
|----------1---1----------1---1---5-1---|
|--3-3---3---3----3-3---3---3---------3-|
|------2--------------2-----------------|
|---------------------------------------|
|---------------------------------------|
|---------------------------------------|

Posicion de LA
|----------0---0----------0-------------------5-3-1-0-----|
|-2-2----2---2---2-2----2---------------------------------|
|------2--------------2------3-2-0-0-3-2-0-0--------------|
|---------------------------------------------------------|
|---------------------------------------------------------|
|---------------------------------------------------------|
ACLARO Q EN EL INTRO UNA PARTE DE LA 1ERA PARTE SE REPITE, LA ULTIMA

 REm
Ella se agita, toda la noche mueve la cinturita
                  LA
y pa' colmo usa pollera cortita
el meneo la levanta todita

REm
Ella es bonita, baila mueve se menea te exita
                    LA
y a uno se le va parando solita
ella sigue porque sabe que irrita

                        REm
Es que ella tiene un bombon asesino
sabe un bombon bien latino
                LA
Es que es un bombon suculento
con ese bombon casamiento

               REm
Se mueve el bombon y lo mueve
menea el bombon cuando quiere
             LA
Parece un bombon insaciable
seguro un bombon masticable
              REm
me como el bombon





Calificar esta versión:
Aviso: Este fichero es trabajo propio de su transcriptor y representa su interpretación personal de la canción. El material contenido en esta página es para exclusivo uso privado, por lo que se prohibe su reproducción o retransmisión, así como su uso para fines comerciales.
Más versiones de El Bombón Asesino, Los Palmeras
El Bombón Asesino
acordes
El Bombón Asesino
tablatura
El Bombon Asesino
bajo
El Bombón Asesino
teclado
El Bombón Asesino
armonica
Descubre más canciones de Los Palmeras