Angelica, Los Nocheros (tablatura)

Autor: Anónimo | 43832 visualizaciones

INTRO*

  Dom     Do7       Fam       Sol7          Dom   Do7
Angélica, cuando te nombro me vuelve a la memoria 
   Fam   Sol7        Dom        La#7      Sol# Sol7                          Dom Do7
un valle,     pálida luna en la noche de abril      y aquel pueblito de Córdoba.
   Fam   Sol7        Dom        La#7      Sol# Sol7                          Dom  Do#Maj7
Un valle,     pálida luna en la noche de abril      y aquel pueblito de Córdoba.


SEFUNDA ESTROFA CON LOS MISMOS ACORDES DE LA PRIMERA


Si un águila fue tu cariño, paloma mi pobre alma. 
temblando, mi corazón en sus garras sangró y no le tuviste lástima.
Temblando, mi corazón en sus garras sangró y no le tuviste lástima.


Sol7       Dom              Do7       Fam         Sol7                   Dom  Do7
 No   olvidaré cuando en tu Córdoba te ví, y tu clavel bajo los árboles robé.
    Fam    Sol7          Dom      La#7    Sol# Sol7                     Dom
Mis brazos,    fueron tu nido, tu velo, la luz     de la luna entre los álamos.
Mib Do7 Fam    Sol7           Dom      La#m    Sol#7 Sol7                        Dom  
Mi---is Brazos,     fueron tu nido, tu velo, la luz      de la luna entre los álamos.


SOLO*


SEGUNDA PARTE CON LOS MISMOS ACORDES DE LA PRIMERA


Tus párpados si por instantes te vuelven los ojos mansos
recuerdan cuando en el cielo de pronto se vé que nace y muere un relámpago.
Recuerdan cuando en el cielo de pronto se vé que nace y muere un relámpago.

Las sábanas que sobre el suelo se tienden cuando la escarcha
no es blanca como la límpida flor de tu piel, ni fría como tus lágrimas.
No es blanca como la límpida flor de tu piel, ni fría como tus lágrimas.

No olvidaré cuando en tu Córdoba te ví...


INTRO:

-----3---4---3-----3-------1---3-------11---------------------------2-------2-----1ra
---4---4---------4---4---3---3---3---3----3------4---6--5-------4-----4---4---4---
-----------------------------------------------5---5------4---5---5-----5---------
----------------------------------------------------------------------------------
-3-------------3-------2-----------2----------------------------------------------
----------------------------------------------4-------------4---------------------6ta

---------3--------3--------------3--1ra
-----3-----3----3---3------3---3----
---4---4------4----------4---4------
------------------------------------
------------------------------------
-3---------------------3------------6ta

SOLO: Con acordes Fam - Sol7 - Dom - Sol7 - Dom - Do7 - Fam - Sol7 - Dom - La#7 - Sol# -
                  Sol7- Dom - Sol7 - Dom      

-4-4-1-1-----1-1-4-4---8-8-11-11-10-10-88-8----------------------8~7--7-10-8-7-8-7-8---1ra
-6-6-3-3-3-3-3-3-6-6-------------------------9-8--8~9--------8~9-----------------------
---------4-4-----------8-8-12-12-10-10-88-8-10-8-----8~7-9~11--------------9-7-9-7-9---3ra

-6-6~8~6-4~6~4-3-4------------------------1-3---15-16-15-13-11-10-10/13-12-11----------1ra
-8-8-----6-----5-6---------1---1-3-4---44----------------------------------------------
---------------------0-0-0---0-------0----------15-16-15-13-12-11-11/14-13-12----8-8-8-3ra

-10---10--10--11--11--11--11---1ra
----8---8---8---8---8---8------
-------------------------------3ra

Fuente original: LaCuerda
Colaborador original: Cesar F@bi@n Vilca [fabian_0190@hotmail.com]
Calificar esta versión:
Aviso: Este fichero es trabajo propio de su transcriptor y representa su interpretación personal de la canción. El material contenido en esta página es para exclusivo uso privado, por lo que se prohibe su reproducción o retransmisión, así como su uso para fines comerciales.
Más versiones de Angelica, Los Nocheros
Angelica
acordes
Angelica (ver 2)
acordes
Angelica
tablatura
Angelica (ver 2)
tablatura
Angélica
teclado
Descubre más canciones de Los Nocheros