Jinetes En El Cielo, Los Iracundos (tablatura) (ver 2)

Autor: Rock_on | 38740 visualizaciones

3|-------------------------------------------------------3-3-3-3
4|----------------------------------------0-2-22-0-2-2-2--------
5|--0-00-2-3-33-0-------------0-00-2-3-33-----------------------
6|0---------------3-33-0-3--0-----------------------------------


3|---------------------------------------
4|2-2-2-2-2-2----------------------------
5|--------------------0-3-3-3--3-0-----0-
6|------------0-1-1-1--------------3-0---
Calificar esta versión:
Aviso: Este fichero es trabajo propio de su transcriptor y representa su interpretación personal de la canción. El material contenido en esta página es para exclusivo uso privado, por lo que se prohibe su reproducción o retransmisión, así como su uso para fines comerciales.
Más versiones de Jinetes En El Cielo, Los Iracundos
Jinetes En El Cielo
tablatura
Jinetes En El Cielo (ver 2)
tablatura
Descubre más canciones de Los Iracundos