Con La Misma Moneda, Los Iracundos (bajo)

Autor: Anónimo | 18738 visualizaciones



intro (PUNTEO en la guitarra)

G|-------------------------------------------------------------
D|-------------------------------------------------------------
A|----5--5-4--4-5-------7--7-5----5-4-------------------2--2-2--
E|---------------------------------------3---3-2---2-5--7--7-7---
						 suenan = 	



verso ( se repite )

G|---------------------------------------------------------------------
D|----4-4-(5)----------------------------------------------------------
A|------------------------------------5-----------9-----------2-4--------
E|----2-2-(3)-------5----5--2-----0-0-------0--------------7-----7-9-----

     suenan =						    suenan =	




El verso 2 es igual al primero solo que se juega con la cuerda a aire entre
cada nota escuchalo y date cuenta. 


CORO Y PUNTEOS FINALES

G|-------------------------------------------------------------
D|-------------------------------------------------------------
A|----5--5-4--4-5-------7--7-5----5-4-------------------2--2-2--
E|---------------------------------------3---3-2---2-5--7--7-7---
							 suenan = 	


similar al intro por momentos juega con la cuerda al aire



nota:espero les haya gustado esta chevere.





Calificar esta versión:
Aviso: Este fichero es trabajo propio de su transcriptor y representa su interpretación personal de la canción. El material contenido en esta página es para exclusivo uso privado, por lo que se prohibe su reproducción o retransmisión, así como su uso para fines comerciales.
Más versiones de Con La Misma Moneda, Los Iracundos
Con La Misma Moneda
acordes
Con La Misma Moneda (ver 2)
acordes
Con La Misma Moneda
bajo
Descubre más canciones de Los Iracundos