La Noche Sin Tí, Los Huayra (tablatura)

Autor: Anónimo | 45120 visualizaciones

G#m/5 
Vuelve a despertar la lluvia en mí,
C#m                G#m
derramando toda su raíz,
           A
sobre el papel.


G#m/5 
Vuelven a caer sobre la piel,
C#m                      G#m
del que va esperando por nacer,
        A
estas aquí.



F#m                        B
Mientras tanto busco las palabras
                     G#m
que me cubran esta herida,
                    C#m
que me alejen mas de ti.



F#m                     B
Y la soledad me va creciendo,
                        G#m
con la niebla de este invierno,
                 C#m
que no puedo resistir,
   A         Am
la noche sin ti.



G#m/5 
La mañana se levanta ya,
C#m                      G#m
no hay señales de q volverás,
           A
no estas aquí.



G#m/5 
Solamente quiero comprender,
C#m                        G#m
que tu ausencia vive en mi pared,
          A
y sin querer.


F#m                  B
Como detener este vacío
                     G#m
que me crece desde adentro
                 C#m
que no me deja seguir.


F#m                       B
Como asimilar todos los huecos
                   G#m
que aparecen en mi cama
              C#m
y se quedaran ahí,
     A      Am   Am6
se apaga la luz.


Estribillo

G#m/5 
Y me siento solo con mi voz,
C#m                  G#m
no descubro como sucedió
            A
perder tu amor.


G#m/5 
Todo lo que nunca mas veré,
C#m                    G#m
como se me anuda el corazón,
         A
como volver.


F#m                    B
Si tuviera la oportunidad,
                    G#m        C#m
en aquel minuto reparar, de no caer.


F#m                      B
Si quedaran rastros a seguir,
                          G#m          C#m
una huella tenue en ese abril, perdiéndose,
       A          Am
en la sombra del ayer.


Base del solo: G#m/5+ - G#m - A - B - E - C#m - A - B - G#m/5+
(escuchar bien los tiempos en cada nota)


Solo:

E---12-----12---12-----11-----11----11-----9------9---9-
B-----12-----------------12------------------10---------
G-13----13----13---13------13----13----13-------9---9---
D-------------------------------------------------------
A-------------------------------------------------------
E-------------------------------------------------------

E--------9--10/12-12-11-11--9--9-7-7--5--5-
B----10-----10/12-12-12-12-10-10-9-9--7--5-
G-9----------------------------------------
D------------------------------------------
A------------------------------------------
E------------------------------------------

E-12-7----------7---------------------------------
B------9-----9-----10-9h10p9-7-9----------------9-
G-----------9--------------------6-9-----9p8------
D----------9--------------------------11-----11---
A-------------------------------------------------
E-------------------------------------------------

E---7/9---------------------9--10/12-12-11-11-
B---------10-------------10----10/12-12-12-12-
G-9----------9-8h9-----9----------------------
D------------------11-------------------------
A---------------------------------------------
E---------------------------------------------

E--9--9-7-7-5-5h7p5-4-7-12-11----9---7--5-4-
B-10-10-9-9-7-5-----5-9-14-12-10---9----7-5-
G-------------------------------------------
D-------------------------------------------
A-------------------------------------------
E-------------------------------------------


Estribillo

G#m/5 
Y me siento solo con mi voz,
C#m                  G#m
no descubro como sucedió
            A
perder tu amor.


G#m/5 
Todo lo que nunca mas veré,
C#m                    G#m
como se me anuda el corazón,
         A
como volver.


F#m                    B
Si tuviera la oportunidad,
                    G#m        C#m
en aquel minuto reparar, de no caer.


F#m                      B
Si quedaran rastros a seguir,
                          G#m          C#m
una huella tenue en ese abril, perdiéndose,
       A          Am
en la sombra del ayer.


G#m/5        C#m     G#m              A     E  E
ohhhhhhhhhhhhhhh    uhhhhhhhhhhhhhhhhhhh


Notas

G#m/5 

E--4----
B--5----
G--4----
D--6----
A--7----
E--0----


Am6

E--2---
B--1---
G--2---
D--2---
A--0---
E------


bueno espero q le haya gustado esta transcripcion!!

si tienen dudas o sugerencias a mi correo!!

desde salta - Villa Lujan

Pablon se despide!!
Calificar esta versión:
Aviso: Este fichero es trabajo propio de su transcriptor y representa su interpretación personal de la canción. El material contenido en esta página es para exclusivo uso privado, por lo que se prohibe su reproducción o retransmisión, así como su uso para fines comerciales.
Más versiones de La Noche Sin Tí, Los Huayra
La Noche Sin Tí
acordes
La Noche Sin Tí (ver 2)
acordes
La Noche Sin Tí
tablatura
Descubre más canciones de Los Huayra