Amando A Mi Guitarra, Los Gardelitos (bajo)

Autor: Anónimo | 30180 visualizaciones

los Gardelitos
Amando mi Guitarra (BAS) Colaboracion Ticiano
ticimaccio@hotmail.com
  los gardelitos

INTRO      x=nota muteada
G-----------|----------|----------|----------|
D-----------|------8---|------6---|----------|
A----6--9---|-6--9---6-|-4--7---4-|---6--9---|
E--7------7-|----------|----------|-7------7-|

G-----------|----------|----------|----------|----------|
D-----------|------8---|------6---|----------|----------|
A----6--9---|-6--9---6-|-4--7---4-|-6-x--4---|-6-x-4----|
E--7------7-|----------|----------|----------|----------|

CANTO

G-----------|----------|----------|----------|             |
D-----------|------8---|------6---|----------|vuelve       |
A----6--9---|-6--9---6-|-4--7---4-|---6--9---|al principio | x varia veces
E--7------7-|----------|----------|-7------7-|del canto    |

PUENTE  (maldita la hora ...)

G------------|-----------|----------|----------|
D----8--11---|---8--11---|---6--9---|---6--9---|
A--9-------9-|-9-------9-|-7------7-|-7------7-|
E------------|-----------|----------|----------|

CORTES

G---------|--------|--------|--------|
D---------|--------|--------|--------|
A--9-x-9--|-9-x-9--|-7-x-7--|-7-x-7--|
E---------|--------|--------|--------|

    FIN

Listo este es todo el tema, ecuchenel cd para saber los tiempos es la versio
de los gardelitos en cemento cd2.
saludos al eric y chacha de cordoba y a los pibes de merlo norte al alfredo,
carriso y a bigote rocanrol.

Fuente original: LaCuerda
Colaborador original: ticiano [ticimaccio@hotmail.com]
Calificar esta versión:
Aviso: Este fichero es trabajo propio de su transcriptor y representa su interpretación personal de la canción. El material contenido en esta página es para exclusivo uso privado, por lo que se prohibe su reproducción o retransmisión, así como su uso para fines comerciales.
Más versiones de Amando A Mi Guitarra, Los Gardelitos
Amando A Mi Guitarra
acordes
Amando A Mi Guitarra
tablatura
Amando A Mi Guitarra (ver 2)
tablatura
Amando A Mi Guitarra
bajo
Descubre más canciones de Los Gardelitos