6 Am, Los Gardelitos (acordes)

Autor: Anónimo | 18663 visualizaciones

c5d5g5
 Intro....

     D5           C5         G5
1|------------------------------------------------------|
2|------------------------------------------------------|
3|------------------------------------------------------|
4|---7-9--7-9----5-7--5-7-------------------------------|
5|---5-5--5-5----3-3--3-3----5-7-5-7-5-7-5--------------|
6|---------------------------3-3-3-3-3-3-3--------------|

Todo el tema con este riff
   D5                               C5                               D5      C5      G5
1|------------------------------------------------------------------|---------------------------|
2|------------------------------------------------------------------|---------------------------|
3|------------------------------------------------------------------|---------------------------|
4|-7-9-7-9-7-9-7-9-7-9-7-9-7-9-7-9--5-7-5-7-5-7-5-7-5-7-5-7-5-7-5-7-|7-9-7-9-5-7-5-7------------|
5|-5-5-5-5-5-5-5-5-5-5-5-5-5-5-5-5--3-3-3-3-3-3-3-3-3-3-3-3-3-3-3-3-|5-5-5-5-3-3-3-3--5-7-5-7-5-|
6|------------------------------------------------------------------|-----------------3-3-3-3-3-|

D5
Son las seis de la mañana 
hay que ir a trabajar 
C5
pero yo no tengo ganas 
me quiero quedar aca, 
D5                 C5
esta tan linda la cama 
G5
hoy no quiero trabajar

D5
Yo no se lo que me pasa 
hace tiempo que ando mal
C5
tengo tantos pensamientos
que no se que va a pasar,
D5                 C5
afuera esta lloviendo 
G5
hoy no quiero trabajar.

D5
Oye dime linda nena 
tu me puedes explicar 
C5
que es lo que me esta pasando 
ni siquiera puedo hablar
D5                    C5
estoy duro como un piedra 
G5
¡Hoy no puedo trabajar!

Solo de Guitarra.......

D5
Son las seis de la mañana 
hay que ir a laburar
C5
pero yo no tengo ganas 
me quiero quedar aca, 
D5          C5
hoy no quiero
G5
hoy no quiero trabajar.

1|--------------------------------|
2|--------------------------------|
3|--------------------------------|
4|--------------------------------|
5|-2h0---------------9------------|
6|-----3-2--3-4-5-7--7------------|

Fin.......

Escuchenlo, escuchenlo, escuchenlo
Escuchenlo, escuchenlo, escuchenlo
Lo mas grande del Rocanroll son Los Gardeles
La Puta que lo pario.........
Aguante Rio Grande!! 

Fuente original: LaCuerda
Colaborador original: Yamil Sebastian G. [Ricotero84@hotmail.com ]
Calificar esta versión:
Aviso: Este fichero es trabajo propio de su transcriptor y representa su interpretación personal de la canción. El material contenido en esta página es para exclusivo uso privado, por lo que se prohibe su reproducción o retransmisión, así como su uso para fines comerciales.
Más versiones de 6 Am, Los Gardelitos
6 Am
acordes
6 Am (ver 2)
acordes
6 Am
bajo
Descubre más canciones de Los Gardelitos