Mi Cuarto Vacío, Los Del Fuego (tablatura)

Autor: Anónimo | 33076 visualizaciones

1/------------------
2/------------------
3/--------0--------2    ESTO 2 VECES
4/------23----0---2-
5/-0-2-3-----2---0--
6/----------3-------


1/--5-5-----7-7-----5------------
2/-6-6-6---8-8-8---6-6-------6-6-
3/---------------------5-6-7--7-7
4/-------------------------------
5/-------------------------------
6/-------------------------------


1/--5-5-----7-7-----8-8------10--10------8-8------15--15-
2/-6-6-6---8-8-8---8-8-8---10--10--10---8-8-8---15--15--15
3/--------------------------------------------------------
4/--------------------------------------------------------
5/--------------------------------------------------------
6/--------------------------------------------------------


esto se lo dedico a todos los amantes de la cumbia santafesina
Calificar esta versión:
Aviso: Este fichero es trabajo propio de su transcriptor y representa su interpretación personal de la canción. El material contenido en esta página es para exclusivo uso privado, por lo que se prohibe su reproducción o retransmisión, así como su uso para fines comerciales.
Más versiones de Mi Cuarto Vacío, Los Del Fuego
Mi Cuarto Vacío
acordes
Mi Cuarto Vacío
tablatura
Descubre más canciones de Los Del Fuego