Juarabas Tu, Los Del Fuego (tablatura)

Autor: Anónimo | 18077 visualizaciones

Intro:

-----14-12--------(10-x4)--9---------------15-14------15-14-12------
-10---------10---------------12---------12--------12-----------15-12
---------------------------------9----------------------------------
--------------------------------------------------------------------
--------------------------------------------------------------------
--------------------------------------------------------------------




   RE              LA              SOL             SIm LA
    SIEMPRE TU ME DECIAS QUE ME AMABAS QUE ERA TU VIDA
     RE                 LA
    YO ESPERABA TODO DE TI
              SOL         SIm    LA      RE
    PORQUE DE MI TODO TENIAS TENIAS MI AMOR
           LA            SOL             SIm  LA
   COMO PUEDO YO AMARTE ASI DE MI RECUERDO


   ESTRIBILLO

   RE                          LA
   DONDE ESTA,DONDE ESTA TU AMOR,TU AMOR
         SOL            SIm   LA
   ESE AMOR QUE ME JURABAS TU
    RE                        LA
   DONDE ESTA,DONDE ESTA,TU AMOR,TU AMOR
         SOL             SIm    LA
   ESE AMOR QUE ME JURABAS T



----------------10-12-14-10-12--10------------------------12-10-----
-7-8-7-8s10--10---------------------14-12-10------7-8-10------------
---------------------------------------------9----------------------
--------------------------------------------------------------------
--------------------------------------------------------------------
--------------------------------------------------------------------

----10-12-14-15-12--10--------------------------10-10-9-7---7-9-10--
-10--------------------14-12-10----12p14--10--------------7---------
--------------------------------9-----------------------------------
--------------------------------------------------------------------
--------------------------------------------------------------------
--------------------------------------------------------------------


--12-----------------------------------------------------10-10--9---
------------10p12---12-10----------------------------12-------------
-----9--9-------------------12-12-11-11--11-9-----------------------
-----------------------------------------------12-9-----------------
--------------------------------------------------------------------
--------------------------------------------------------------------

-----------9-10-12-----------------------14-12----------------------
-12-----12------------10p12-12-10-----10-------10-------------------
-----9------------9-9----------------------------------Acorde reM---
--------------------------------------------------------------------
--------------------------------------------------------------------
--------------------------------------------------------------------





   RE              LA              SOL             SIm LA
    SIEMPRE TU ME DECIAS QUE ME AMABAS QUE ERA TU VIDA
     RE                 LA
    YO ESPERABA TODO DE TI
              SOL         SIm    LA      RE
    PORQUE DE MI TODO TENIAS TENIAS MI AMOR
           LA            SOL             SIm  LA
   COMO PUEDO YO AMARTE ASI DE MI RECUERDO


   ESTRIBILLO

   RE                          LA
   DONDE ESTA,DONDE ESTA TU AMOR,TU AMOR
         SOL            SIm   LA
   ESE AMOR QUE ME JURABAS TU
    RE                        LA
   DONDE ESTA,DONDE ESTA,TU AMOR,TU AMOR
         SOL             SIm    LA
   ESE AMOR QUE ME JURABAS T



--10-10p7--9p7---10p7---9p7---10p7----12p9-----10p9-----12p9--------
---------7-----7------7-----7-----7--------10-------10-------10-----
--------------------------------------------------------------------
--------------------------------------------------------------------
--------------------------------------------------------------------
--------------------------------------------------------------------



--10p9----12p9------15p12-----14p12-----15--------------------------
-------10------10---------12--------12---------------------12-10----
------------------------------------------------------9-12----------
-------------------------------------------------9-12---------------
--------------------------------------------9-12--------------------
--------------------------------------------------------------------


--------------------------------------------------------------------
------------10------------------------------------------------------
-12--11-12----------------------------------------------------------
--------------------------------Fin *-------------------------------
--------------------------------------------------------------------
--------------------------------------------------------------------




Cualquier cosa q no se entienda escribirme a :leocastro_11@hotmail.com

Saludos!!!!
si necesitan otro tema de los del fuego avisenme y lo transcribo!
Calificar esta versión:
Aviso: Este fichero es trabajo propio de su transcriptor y representa su interpretación personal de la canción. El material contenido en esta página es para exclusivo uso privado, por lo que se prohibe su reproducción o retransmisión, así como su uso para fines comerciales.
Más versiones de Juarabas Tu, Los Del Fuego
Juarabas Tu
acordes
Juarabas Tu
tablatura
Descubre más canciones de Los Del Fuego