Quiero Amarte, Los De Adentro (tablatura)

Autor: Anónimo | 22480 visualizaciones

Este es el solo de la canción, está 100% bien, solo es saberla tocar
bien a tiempo. misteriouhhh@hotmail.com

E||--------------------------------------------------------|
B||--------------------------2h3p-2---2--2h3p-2------------|
G||--------2h4p2---2--------2-------4-----------4--2h4p2---|
D||----2h4-------4---4-----2-------------------------------|
A||--4-----------------------------------------------------|
E||--------------------------------------------------------|

--------------------------------------------|
--/3-3--/5-5--/7-7--7--7---6--6--------6----|
--------------------------------6-4-6---6---|
--------------------------------------------|
--------------------------------------------|
--------------------------------------------|

---------------------------------------||
----------------5--7p5---5-3--3-3S5-3--||
------------2S4--------7---------------||
--------2-4----------------------------||
--0-2-4--------------------------------||
---------------------------------------||

Transcripción: misteriouhhh@hotmail.com
Calificar esta versión:
Aviso: Este fichero es trabajo propio de su transcriptor y representa su interpretación personal de la canción. El material contenido en esta página es para exclusivo uso privado, por lo que se prohibe su reproducción o retransmisión, así como su uso para fines comerciales.
Más versiones de Quiero Amarte, Los De Adentro
Quiero Amarte
acordes
Quiero Amarte
tablatura
Descubre más canciones de Los De Adentro