Eres Mi Sol, Los De Adentro (tablatura)

Autor: Anónimo | 20876 visualizaciones

Esta cancion se la dedico a la mujer quien siempre pienso,
que haci este lejos nunca la dejare de amar, la mujer que
nunca he amado igual,felicidad y nostalgia,mi princesa,
la que me enseño a sentir. MARTHA ARENAS
TE AMO CON TODO MI SER!
...................................................................
INTRO

F  A#  F  A#  F  A#


RIFF
/=slide     h=hammer    p=pull off      t=triller
e|-------------------------------------------------------------|
B|------------------10--------------´8h10-8---------/15---13---|
G|---10-10--8/9/10-----10-10-8/9/10-----------10---------------|
D|-------------------------------------------------------------|
A|-------------------------------------------------------------|
E|-------------------------------------------------------------|


e|------------------------
B|---------7h9p7---8t9----
G|---7/8/9-------7--------
D|------------------------
A|------------------------
E|------------------------


F       A#
Caminaba por aquí
F         A#
  Recordando ese día gris
F              A#      F     A#
Cuando el sol se negaba a salir.....




Pre- Coro

Em                             Am
SoyYYYYYYYY aquel que nunca cambia
     C   D
no cree nada

F
Voy de bar en bar de fiesta en fiesta
Fm
Mujeres alcohol y dolor




Coro

C          F    C         F
Solo necesito, solo necesito
G        C   F   C   G
un amor

C              F          C       F    G
Siempre tan....



(Los acordes siguen siendo los mismos en la estrofa,
y se repite el riff despues del primer coro)


    F    A#   Em   Am  C  Fm  G
e|--1----6----0----0---0--1---3----/
B|--1----6----0----1---1--1---0----/
G|--2----7----1----2---0--1---0----/
D|--3----8----2----2---2--3---0----/
A|--3----8----2----0---3--3---2----/
E|--1----6----0----0---0--1---3----/
Calificar esta versión:
Aviso: Este fichero es trabajo propio de su transcriptor y representa su interpretación personal de la canción. El material contenido en esta página es para exclusivo uso privado, por lo que se prohibe su reproducción o retransmisión, así como su uso para fines comerciales.
Más versiones de Eres Mi Sol, Los De Adentro
Eres Mi Sol
acordes
Eres Mi Sol
tablatura
Descubre más canciones de Los De Adentro