Dime Que Sí, Los De Adentro (tablatura) (ver 2)

Autor: Anónimo | 37343 visualizaciones

Hola amigos, aquí les mando las notas
De esta canción tan bacana


INTRO

    D           Daug       Bm       G
E|--2--2--------2--2-------2--------3--3------|
B|--3----3------3----3-----3--3-----3----3----|
G|--2------2----3------3---4----4---4------4--|
D|--0-----------0----------4--------5---------|
A|----------------------------------5---------|
E|----------------------------------3---------|

    Em           Asus4
E|--0--0---------0----------------------------|
B|--0----0-------3--2-------------------------|
G|--0------0-----2----------------------------|
D|--2------------2----------------------------|
A|--2------------0----------------------------|
E|--0-----------------------------------------|


I VERSO

G       F#7                Bm              E
 Nos alejamos tanto que el tiempo borró tu rastro
      G                   F#7
Del cielo, la tierra y el pasto
  Bm                     E
No encuentro algo que me lleve a ti
    G         A
Por eso tengo que decirte...


CORO

D   A      Bm            F#m7  G
 Dime que sí... que a mi lado  fuiste feliz
          Em              A
 Que descubriste que el amor no es así
D   A       Bm           F#m7  G
 Dime que sí... que a mi lado  fuiste feliz
            Em    A     D
 A pesar de todo  fue así


SOLO

    D      Daug
E|--2------2-|
B|--3------3-|
G|--2------3-|
D|--0------0-|
A|-----------|
E|-----------|


II VERSO

G          F#7            Bm
 Paso a paso recorro a lo que en un tiempo
           E
 Fue el sendero el camino
G            F#7            Bm                  E
 A ver si me juega el destino y te pone en mí camino
    G                 F#7            Bm
 Recuerdos que se desvanecen al parecer
             G                 A
 Deslizando mis palabras en tu piel


Coro

D   A      Bm            F#m7  G
 Dime que sí... que a mi lado  fuiste feliz
          Em              A
 Que descubriste que el amor no es así
D   A       Bm           F#m7  G
 Dime que sí... que a mi lado  fuiste feliz
            Em    A     D
 A pesar de todo  fue así


SOLO

     D                Daug
 E|--9/10-9-7------------------------------------|
 B|-----------10-8-7--10/12-10-8-7---------------|
 G|--------------------------------9-7-----------|
 D|----------------------------------------------|
 A|----------------------------------------------|
 E|----------------------------------------------|

    Bm              G                        Em        Asus4
 E|-9/10-9-7---------------------------------------------------|
 B|----------10-8-7-10/12-10-8--8-8-7-8h7----------------------|
 G|---------------------------------------9--9-7---7---6-4---4-|
 D|----------------------------------------------9---------5---|
 A|------------------------------------------------------------|
 E|------------------------------------------------------------|


PRELUDIO

Bm     A        G    F#7
Y miro al cielo y lo sé
Bm   A        G         A
 Que jamás te volveré a ver



CORO

D   A      Bm            F#m7  G
 Dime que sí... que a mi lado  fuiste feliz
          Em              A
 Que descubriste que el amor no es así
D   A       Bm           F#m7  G
 Dime que sí... que a mi lado  fuiste feliz
            Em    A     D
 A pesar de todo  fue así



Hagan los acordes Asi para que les suene bien

    Asus4      Daug    F#7       F#m7    G
E-----0--------2--------2--------2-------3-
B-----3--------3--------2--------2-------3-
G-----2--------3--------3--------2-------0-
D-----2--------0--------2--------2-------0-
A-----0--------0--------4--------4-------2-
E-----0--------0--------2--------2-------3-

Un saludo para la niña mas linda, candy
Calificar esta versión:
Aviso: Este fichero es trabajo propio de su transcriptor y representa su interpretación personal de la canción. El material contenido en esta página es para exclusivo uso privado, por lo que se prohibe su reproducción o retransmisión, así como su uso para fines comerciales.
Más versiones de Dime Que Sí, Los De Adentro
Dime Que Si
acordes
Dime Que Sí
tablatura
Dime Que Sí (ver 2)
tablatura
Descubre más canciones de Los De Adentro