Te Puedes Matar, Los Daniels (tablatura)

Autor: Anónimo | 45309 visualizaciones



Ps aqui checando la tablatura. i ps al parecer la mayoria d las cosas
estan bien. pero si hai detalles graves que no van con la rola.
ammm.
primero q nada.
la primera guitarra usa Quintas no acord completo.
i segundo algunos acordes no son los correctos.




  G#m5   E5    B5   F#5   D#5   C#m5   G5
e----- ----- ----- ----- ----- ----- -----
B----- ----- ----- ----- ----- ----- -----
G----- --9-- ----- ----- --8-- --6-- -----
D--6-- --9-- --9-- --4-- --8-- --6-- --5--
A--6-- --7-- --9-- --4-- --6-- --4-- --5--
E--4-- ----- --7-- --2-- ----- ----- --3--

INTRO G#m E B F#

e-------------------------------|-------------------------------|
B-----4-4h5h4-------------------|-----4-4h5h4----------------4*-|
G---4---------4h6h4-3h4-6-4-3---|---4---------4h6h4-3h4-6-4-----|
D-6-----------------------------|-6-----------------------------|
A-----------------------------6-|-------------------------------|
E-------------------------------|-------------------------------|
* KI EN LA PARTE DONDE LLEVA EL ASTERISCO SE TOCA RAPIDO ASIENDO
LA PLUMILLA DE ARRIBA ASIA ABAJO

G#m                 E            B
Caminas entre la gente, empujándola
       D#       G#m               E
Llegas ami, me dices que no me aleje
                 B                D#
Y cuando estaba ahí me hiciste infeliz
            G#m
Te puedes matar
E        B    D#
Uuooh uooh ..

            G#m      E        B  D#
Total que más da... uuooh uuohh
C#m                       B
Pero es que nunca voy a olvidar
                 E        D#    E
Cuando te hice llorar de dolor
C#m                         B
Pero es que nunca te voy a sentir
             E               D#
Si eres para mi, solo diversión



G#m                   E
Te muestras indiferente
         B         D#
Que casualidad ah ah ah …
G#m                     E
Te drogas haber si me afecta
            B              D#
Lo siento solo te afecta ati
           G#m   E       B    D#
Te puedes matar Uuooh uuooh
               G#m  E       B    D#
Total que más da…  uuooh uuooh


C#m                       B
Pero es que nunca voy a olvidar
                   E     D#    F#
Cuando te hice llorar de dolor
C#m                          G#m
Pero es que nunca te voy a sentir
            E             D#
Y eres para mi solo diversión
             G#m x4
Solo diversión….

SOLO

E B G# B D#

E B G# B F# G G#


e---7-7---7-7-6-6-6-6-6----9-9---9-9-8-7-5-4-5-7--|
B-5-----5----------------7-----7------------------|
G-------------------------------------------------|


Pero es que nunca voy a olvidar
Cuando te hice llorar de dolor
Pero es que nunca te voy a sentir
Si eres para mi, solo diversión
Solo diversión….

G#





Calificar esta versión:
Aviso: Este fichero es trabajo propio de su transcriptor y representa su interpretación personal de la canción. El material contenido en esta página es para exclusivo uso privado, por lo que se prohibe su reproducción o retransmisión, así como su uso para fines comerciales.
Más versiones de Te Puedes Matar, Los Daniels
Te Puedes Matar
acordes
Te Puedes Matar
tablatura
Te Puedes Matar
bajo
Descubre más canciones de Los Daniels