Por Fín, Los Dandys (tablatura)

Autor: Anónimo | 19501 visualizaciones



bueno esta es la cancion espero que les guste

ESTE REQUITO SE TOCA MEJOR CON CIRCULO DE LA
Y CON CAPO EL EL SEGUNDO TRASTE

ESTA SE TOCA COMO SI FUERA VANDOLINA

E-5-0-5-0-5-0-5-0-5-0-5-0--9--0--9--0--9--0-
B-2-2-2-2-2-2-7-7-7-7-7-7-10-10-10-10-10-10-

ESTA PARTE SE TOCA UN POCO MAS LENTO

E-10-10--9-7-5-4-2-0-0-0-0-0-0-0-0-0-0-0
B-12-12-10-9-7-5-3-1-2-1-2-1-0-0-1-0-1-0

E------------------------------------------
B------------------------------------------
G--2-2----4-4-4----------------------------
D------4-4------2--------------------------
A------------------------------------------
E------------------------------------------





Calificar esta versión:
Aviso: Este fichero es trabajo propio de su transcriptor y representa su interpretación personal de la canción. El material contenido en esta página es para exclusivo uso privado, por lo que se prohibe su reproducción o retransmisión, así como su uso para fines comerciales.
Más versiones de Por Fín, Los Dandys
Por Fin
acordes
Por Fín
tablatura
Descubre más canciones de Los Dandys