Página Blanca, Los Dandys (tablatura)

Autor: Anónimo | 46372 visualizaciones



 
Para el requinto se necesita poner un capo en el sexto 
traste, si pones el capo en el sexto traste entonces 
toca el circulo de C, mas facil no?

Intro:
  
   (           2 veces         )
        F#    D#m  G#m    C#7                
E -------------------------------
B ------1-----1---2-1h2p1-3/5/3--
G --0-2---0-2---0----------------

      F#       D#m               G#m        C#7
E ----3----5---3---5---3---5------1---3-3-3-1-1--
B ----5----5---5---5---5---5------3---3-3-3-3-3--
G --0----0---0---0---0---0---0------0------------

      F#       D#m               G#m        C#7
E ----0----1---0---1---0---1------1-0------------
B ----1----1---1---1---1---1------1---3-1-0------
G --0----0---0---0---0---0---0--------------1-0--

      F#        D#m       G#m       C#7
E ----3---5p3---3--5p3----1-3p1---1-3p1-----
B ----5---5-----5--5------3-3-----3-3-------
G --0---------0--------0--------0-------0---

    F#        D#m        G#m       C#7
E --0---1p0---0-1p0------1-0------------
B --1---1-----1-1--------1---3-1-0------
G ----------0-------0--------------1-0--

     F# D#m G#m     C#7       F# D#m G#m
Te quiero   ay  mi linda muñequita
   C#7            F# D#m G#m    C#7
yo se que tu comprendes      las penas
           F# D#m G#m C#7
que hay en mi

    F# D#m  G#m     C#7        F#  D#m G#m
Te adoro    ay   mi linda muñequita
   C#7            F# D#m G#m   
yo se que tu comprendes 
     C#7         F# D#m G#m C#7 
mi amor sentimental


F#       D#m     G#m     C#7 F# 
Pagina blanca fue mi corazon
         D#m          G#m        C#7 
donde escribimos una pagina de amor
F# D#m  G#m         C#7 
donde  fue, dulce bien 
        F#    D#m       G#m C#7 
dulce alivio para mi dolor
      F#        D#m     G#m C#7
y yo se que ya nunca jamas
        F#  D#m G#m C#7   
te olvidare

 F#       D#m       G#m       C#7 F#
Tu me quisiste te quiero yo a ti
             D#m        G#m   C#7 
por que te alejas y te vas de mi
F#  D#m G#m        C#7  
vuelve  ven dulce bien
       F#        D#m       G#m  C#7   
ven a darme los besos de amor
         F#        D#m    G#m  C#7  
que sin ellos no puede vivir 
        F# D#m G#m C#7
mi corazón

    F#  D#m G#m      C#7        F#  D#m G#m
te quiero   ay   mi linda muñequita
   C#7            F#  D#m G#m   
yo se que tu comprendes 
     C#7     F#  D#m G#m  
mi amor sentimental
     C#7     F#  D#m G#m  
mi amor sentimental
     C#7     F#  D#m G#m C#7 F# D#m G#m 
mi amor sentimental





Calificar esta versión:
Aviso: Este fichero es trabajo propio de su transcriptor y representa su interpretación personal de la canción. El material contenido en esta página es para exclusivo uso privado, por lo que se prohibe su reproducción o retransmisión, así como su uso para fines comerciales.
Más versiones de Página Blanca, Los Dandys
Página Blanca
acordes
Página Blanca
tablatura
Descubre más canciones de Los Dandys