Dime Que Si Me Quieres, Los Dandys (tablatura)

Autor: Anónimo | 21239 visualizaciones



1--5--7--9---10--9--------|
2--7--9--10--12--10-------|
3-------------------------|
4-------------------------|
5-------------------------|
6-------------------------|

1--5--7--9--10--9--7------|
2--7--9--10-12--10-9------|
3-------------------------|
4-------------------------|
5-------------------------|
6-------------------------|

1--5--7--9--7--5--4-------|
2--7--9--10-9--7--5-------|
3-------------------------|
4-------------------------|
5-------------------------|
6-------------------------|

1--4--5--7--9--7--5-------|
2--5--7--9--10-9--7-------|
3-------------------------|
4-------------------------|
5-------------------------|
6-------------------------|


1--4--5--7--5--4--2-------|
2--5--7--9--7--5--3-------|
3-------------------------|
4-------------------------|
5-------------------------|
6-------------------------|

1--2--4--5--7--5--4-------|
2--3--5--7--9--7--5-------|
3-------------------------|
4-------------------------|
5-------------------------|
6-------------------------|

1--2--1-----------0---1---0--------------------|
2--3--2------------------------3----1---0------|
3--------------------------------------------2-|
4----------------2---3---2---0-----------------|
5----------------------------------3---2---0---|
6----------------------------------------------|



saludos!!
dudas comentarios
al correo :D





Calificar esta versión:
Aviso: Este fichero es trabajo propio de su transcriptor y representa su interpretación personal de la canción. El material contenido en esta página es para exclusivo uso privado, por lo que se prohibe su reproducción o retransmisión, así como su uso para fines comerciales.
Más versiones de Dime Que Si Me Quieres, Los Dandys
Dime Que Si Me Quieres
acordes
Dime Que Si Me Quieres
tablatura
Descubre más canciones de Los Dandys