Como Un Duende, Los Dandys (tablatura)

Autor: Anónimo | 43910 visualizaciones



El requínto esta al aire (sin capo) con la afinación de este, si lo tocas en guitarra 
pónselo en el trasto 5. 

Req.(Mi+)


Req#1 (Inicio).

      |___Sol#7___|____Do#-____|_____Si+____|____La+____|__Mi+ 
 
e|--9--8---9--11--12---9---12--11---14--11---9---12---9--7---|
B|-10,-9,-10--12--14--10,--14--12,--12--12--10,--10--10--9.--|
G|-----------------------------------------------------------|

 _Mi+____|_____La+______|_Mi+|___Do#-____|__Fa#-__|__Si7__|_Mi+
 
e|--4--4--5--5--5--7--5---4---4--5-7-5-4--2------0-2-0---2-0--|
B|--5--5--5--5--5--5--5---5---5-----------2--2-4-------4------|
G|--4--4--6,-6--6--6--6,--4,--6-----------2,------------------|
D|------------------------------------------------------------|

Adornos:
   A1)            A2)                         A3)
e|------9--14-|---4------------------------|----9----9-(4 VECES DESDE *),---8----8(4 VECES DESDE ^)-|
B|--10-10--14-|-----7-5-4------------------|------10--------------------------10--------------------|
G|--11--------|-4---------6-4,-------------|-*9--------------------------^9-------------------------|
D|------------|----------------7-6-4-------|----------------Ver explicación.------------------------|
A|------------|----------------------7-6-4-|--------------------------------------------------------|
E|------------|----------------------------|--------------------------------------------------------|

Explicación: En el A3) si te das cuenta y formas todos los puntos te resulta primero un re+ y luego 
un rem en estos toques; para que te sea mas facil de entenderlo toca con el pulgar en un sube y baja 
la 3a y 2a cuerdas y entre ellas intercala la 1a con el dedo índice; veras que es lo mismo. 
¡Ojo es muy rápido este toque!

   A4)               A5)               A6)

e|-2-2-0-0---------|-5-5-4-4-2-2-0---|-14-11-----|
B|-4-4-2-2-4-4-2-0-|-7-7-5-5-4-4-2-4-|-12-12-12--|
G|---------4-4-2-1-|---------------4-|-------11--|
D|-----------------|-----------------|-----------|


Req#2 (Intermedio).

 |_Do#7_|Fa#-|Si7_|Mi+|Do#7|Fa#-|Si7|Mi+|

e|--13---14---11---12---9---5----7---9--|
B|--12,--14,--10,--12,--9,--5.---7,--7--|
G|--------------------------------------|


Si quieres la letra, notas y lugar donde van los adornos de la canción, checa en el logo de acordes.

Dudas, sugerencias y correcciones por favor a:
famfloma@prodigy.net.mx





Calificar esta versión:
Aviso: Este fichero es trabajo propio de su transcriptor y representa su interpretación personal de la canción. El material contenido en esta página es para exclusivo uso privado, por lo que se prohibe su reproducción o retransmisión, así como su uso para fines comerciales.
Más versiones de Como Un Duende, Los Dandys
Como Un Duende
acordes
Como Un Duende (ver 2)
acordes
Como Un Duende
tablatura
Como Un Duende (ver 2)
tablatura
Descubre más canciones de Los Dandys