Mas Grande Que El Sol, Los Claxons (tablatura)

Autor: Soknor | 40363 visualizaciones



Capo: 7

G Am Em C

e----3-----------------------3----------------------
B---------------------------------------------------
G---0--0-2-4-0--0-2-4-0-----0--0-2-4-0--0-2-4-0--0--
D--0-----------------------0--------------------0---

e--3---------------------3---------------
B----------------------------------------
G---0-2-4--0-0-2-4-2-0--0--00-0-2-4-2-0--
D----------------------------------------

G
Cada cuando mires al cielo
Am
te detienes por un momento
Em        C
y te vas, y te vas

e-----0------0-
B--3/5-5--3/5--

G              Am                           Em
Mira tu mano, que no vez que nada es en vano
                   C                  Am
como puedes tener duda de que esto es mas grande que tu,
mas grande que el sol,
C
y a miles de kilómetros te manda calor

e-----------------------------------
B------3---5-3p0--------------------
G--2/4---4-------2h0-------0--------
D---------------------0h2----4p2p0--

G              Dm        Em
Déjame llevarte pero sin preguntar,
C
tienes que soltarte.

G               Am
Detente, solo por un segundo,
Em
confía en este mundo,
C
que no se envuelve.

G
Vuelve a crecer
vuelve a girar
Am                                  Em
acaba ciclos y los vuelve a empezar
          C
cruza los caminos
Am
estamos aquí,
en esta explosión
 C
viendo el brillo de una estrella
que hace tiempo se murió.

G Am Em C

Am
Mas grande que tu,
mas grande que el sol,
C
y a miles de kilómetros te manda calor
Am                          C
Estamos aquí en esta explosión.

G              Dm        Em
Déjame llevarte pero sin preguntar,
C
tienes que soltarte.

G              Dm        Em
Déjame llevarte pero sin preguntar,
C
tienes que soltarte.

G Am Em C

G
Cada cuando mires al cielo
Am
te detienes por un momento
Em              C
y te vas, y te vas





Calificar esta versión:
Aviso: Este fichero es trabajo propio de su transcriptor y representa su interpretación personal de la canción. El material contenido en esta página es para exclusivo uso privado, por lo que se prohibe su reproducción o retransmisión, así como su uso para fines comerciales.
Más versiones de Mas Grande Que El Sol, Los Claxons
Más Grande Que El Sol
acordes
Mas Grande Que El Sol
tablatura
Descubre más canciones de Los Claxons