Como Dejar De Amarte, Los Charros (tablatura)

Autor: pokemon | 42372 visualizaciones



e--22----------22-----------------------------------------------
b----3-5-7-88-----5--333----------------------------------------
g---------------------------------------------------------------
d---------------------------------------------------------------
a---------------------------------------------------------------
E---------------------------------------------------------------

e--22---------22------------------------------------------------
b----3-5-7-88-----4--222----------------------------------------
g---------------------------------------------------------------
d---------------------------------------------------------------
a---------------------------------------------------------------
E---------------------------------------------------------------





Comentarios del colaborador: ojola que les guste boy a seguir subiendo no suena como la berdadera pero parecido

Calificar esta versión:
Aviso: Este fichero es trabajo propio de su transcriptor y representa su interpretación personal de la canción. El material contenido en esta página es para exclusivo uso privado, por lo que se prohibe su reproducción o retransmisión, así como su uso para fines comerciales.