Jujuy Para Dos, Los Changos (tablatura)

Autor: Anónimo | 42180 visualizaciones



Introduccion:


1.----06-5-6-----3/6--5/4-5/---12-10-9-10/13~-13/1513------12
2.---2---------2------------------------------------------13--
3.--0---------0--------------12---10-9-10---------------12----
4.------------------------------------------------------------
5.------------------------------------------------------------
6.------------------------------------------------------------
                                            ...Franco vamos a acordarnos

1.-12/1312-----10-9/109--10-12-10----9/10/12~------------
2.------------11---------------------10---------------------
3.----------10----------------------9-----------------------
4.----------------------------------------------------------
5.----------------------------------------------------------
6.----------------------------------------------------------


1.----06-5-6-----3/6--5/4-5/---12-10-9-10/13 ~-13-12-10/-8--
2.---2---------2-------------------------------------------
3.--0---------0--------------12---10-9-10------------------9
4.----------------------------------------------------------
5.----------------------------------------------------------
6.----------------------------------------------------------



1.-8-10-8/6-6---6-8/10-10-9---9-9/---------12~----------------
2.--------------------------8------------10-------------------
3.------------7-----------------------12----------------------
4.----------------------------------11------------------------
5.------------------------------------------------------------
6.------------------------------------------------------------



Dsus2/F     A7                       Dsus2/F
A ese Jujuy cortado a pique en la quebrada
         C                             F
donde la noche tiene un gusto a cosa antigua
            A                       Bb
me quema un sol cuando regreso a Purmamarca
         G        E7             Dsus2/F
para vestirme con la magia y el color

Ese Jujuy nos vio pasar enamorados
la sangre en celo, calle abajo, piedra arriba
éramos dos para quedarnos atrapados
éramos dos para jugar a tanto amor

Est.
        A7                            Dm
Nadie sabrá cuanto me amaste y cuanto amé
        C                              F
nadie sabrá quien eras tu ni quien fui yo
            A                           Bb
tan sólo el viento en Pucará nos vio quemándonos la piel
         G           E7             A7
como dos niños aferrados frente a Dios
          A7                          Dm
tu amor pasó pero yo vuelvo siempre allí
            C                           F
al viejo sitio donde el tiempo se durmió
             A                     Bb
será que quiero recordar, será que trato de olvidar
       G               MI7         Dsus2/F
será Jujuy que me ha robado el corazón


Solo:

1.-------0h1-3/5-5--------3------10------5--------------------3
2.-----2----------------0-----0--10-----6-----5h6-8/10------0--
3.---3----------------0-----0----------7-----7------------0----
4.-0----------------------------------7-----7------------------
5.-----------------------------------5-----5-------------------
6.------------------3-----------------------------------3------


1.-----10-----------1-0-3-5-6-5-6p5-5-6/8-6-5-6----13/12------
2.---0-10-------3-2-------------------7/9-8-5-8----------10---
3.-0----------2-----------------------------------------------
4.---------0--------------------------------------------------
5.------------------------------------------------------------
6.------------------------------------------------------------


1.-13-12-10--------0-----0-13-12-10--9-10-12----------15~13-12-
2.---------------0-----0------------------------10/12----------
3.-12-12-10----1-----1-----12-12-10--9-10-12----11/13----------
4.-------------------------------------------12----------------
5.-----------2-------------------------------------------------
6.-------------------------------------------------------------



1.----10----------0--0-------------------------------------------
2.--------------2----3-------------------------------------------
3.-10---------0------2-------------------------------------------
4.----------2--------3-------------------------------------------
5.---------------------------------------------------------------


Cuando amanece en Los Perales junto al río
allá en la inmensa soledad de la montaña
como una sombra entre las sombras te adivino
pasado azul sobre un paisaje sin final

Fue en Huacalera junto al viejo campanario
de amanecidas, de guitarras y de estrellas
cuando tu voz soltó el azúcar de tus labios
cuando dijiste nunca más, ya nunca más



Bueno este es mi primer tab asi q capaz q tiene errores, 
pero para mi humilde oido suena muy bien

Para la brujita.:D





Calificar esta versión:
Aviso: Este fichero es trabajo propio de su transcriptor y representa su interpretación personal de la canción. El material contenido en esta página es para exclusivo uso privado, por lo que se prohibe su reproducción o retransmisión, así como su uso para fines comerciales.
Más versiones de Jujuy Para Dos, Los Changos
Jujuy Para Dos
acordes
Jujuy Para Dos
tablatura
Descubre más canciones de Los Changos