Anaranjado, Los Changos (tablatura)

Autor: Anónimo | 30388 visualizaciones



         LAm          REm           SOL7
1---7h8----7h8----7h8----7h8----8h10----10-8-10-----
2-------5------5------6------6-------8--------------
3---------------------------------------------------
4---------------------------------------------------
5---------------------------------------------------
6---------------------------------------------------
          DO
1---8-10-12-12s13-12-10-12--------------------------
2---------------------------------------------------
3---------------------------------------------------
4---------------------------------------------------
5---------------------------------------------------
6---------------------------------------------------
              MI7                 LAm
1---------------------------------12----10--8-7-8---
2--------------9---9-10-12---9-12----12-------------
3---9-10-9-8-9---9---------9------------------------
4---------------------------------------------------
5---------------------------------------------------
6---------------------------------------------------
                FA      MI7 LAm
1---8-7-----13-12-13-------------*------------------
2-------10-----------------------*------------------
3--------------------------------*------------------
4--------------------------------*------------------
5----------------------------7---*--7-5-7---7-5-7---
6----------------------0h4h5---5-*--------5-------5-

Lo que esta despues de los * acompaña a la letra.
Saludos. Eduardo.





Calificar esta versión:
Aviso: Este fichero es trabajo propio de su transcriptor y representa su interpretación personal de la canción. El material contenido en esta página es para exclusivo uso privado, por lo que se prohibe su reproducción o retransmisión, así como su uso para fines comerciales.
Más versiones de Anaranjado, Los Changos
Anaranjado
acordes
Anaranjado
tablatura
Descubre más canciones de Los Changos